  0
SECTION
  2
HEADER
  9
$ACADVER
  1
AC1014
  9
$ACADMAINTVER
 70
     0
  9
$DWGCODEPAGE
  3
ANSI_1252
  9
$INSBASE
 10
0.0
 20
0.0
 30
0.0
  9
$EXTMIN
 10
58.42
 20
6.248031
 30
0.0
  9
$EXTMAX
 10
109.22
 20
73.66
 30
0.0
  9
$LIMMIN
 10
0.0
 20
0.0
  9
$LIMMAX
 10
500.0
 20
500.0
  9
$ORTHOMODE
 70
     0
  9
$REGENMODE
 70
     1
  9
$FILLMODE
 70
     1
  9
$QTEXTMODE
 70
     0
  9
$MIRRTEXT
 70
     1
  9
$DRAGMODE
 70
     2
  9
$LTSCALE
 40
1.0
  9
$OSMODE
 70
     5
  9
$ATTMODE
 70
     1
  9
$TEXTSIZE
 40
0.2
  9
$TRACEWID
 40
1.5
  9
$TEXTSTYLE
  7
STANDARD
  9
$CLAYER
  8
PCB-BOTT
  9
$CELTYPE
  6
BYLAYER
  9
$CECOLOR
 62
   256
  9
$CELTSCALE
 40
1.0
  9
$DELOBJ
 70
     1
  9
$DISPSILH
 70
     0
  9
$DIMSCALE
 40
1.0
  9
$DIMASZ
 40
0.18
  9
$DIMEXO
 40
0.0625
  9
$DIMDLI
 40
0.38
  9
$DIMRND
 40
0.0
  9
$DIMDLE
 40
0.0
  9
$DIMEXE
 40
0.18
  9
$DIMTP
 40
0.0
  9
$DIMTM
 40
0.0
  9
$DIMTXT
 40
0.18
  9
$DIMCEN
 40
0.09
  9
$DIMTSZ
 40
0.0
  9
$DIMTOL
 70
     0
  9
$DIMLIM
 70
     0
  9
$DIMTIH
 70
     1
  9
$DIMTOH
 70
     1
  9
$DIMSE1
 70
     0
  9
$DIMSE2
 70
     0
  9
$DIMTAD
 70
     0
  9
$DIMZIN
 70
     0
  9
$DIMBLK
  1

  9
$DIMASO
 70
     1
  9
$DIMSHO
 70
     0
  9
$DIMPOST
  1

  9
$DIMAPOST
  1

  9
$DIMALT
 70
     0
  9
$DIMALTD
 70
     2
  9
$DIMALTF
 40
25.4
  9
$DIMLFAC
 40
1.0
  9
$DIMTOFL
 70
     0
  9
$DIMTVP
 40
0.0
  9
$DIMTIX
 70
     0
  9
$DIMSOXD
 70
     0
  9
$DIMSAH
 70
     0
  9
$DIMBLK1
  1

  9
$DIMBLK2
  1

  9
$DIMSTYLE
  2
STANDARD
  9
$DIMCLRD
 70
     0
  9
$DIMCLRE
 70
     0
  9
$DIMCLRT
 70
     0
  9
$DIMTFAC
 40
1.0
  9
$DIMGAP
 40
0.09
  9
$DIMJUST
 70
     0
  9
$DIMSD1
 70
     0
  9
$DIMSD2
 70
     0
  9
$DIMTOLJ
 70
     1
  9
$DIMTZIN
 70
     0
  9
$DIMALTZ
 70
     0
  9
$DIMALTTZ
 70
     0
  9
$DIMFIT
 70
     3
  9
$DIMUPT
 70
     0
  9
$DIMUNIT
 70
     2
  9
$DIMDEC
 70
     4
  9
$DIMTDEC
 70
     4
  9
$DIMALTU
 70
     2
  9
$DIMALTTD
 70
     2
  9
$DIMTXSTY
  7
STANDARD
  9
$DIMAUNIT
 70
     0
  9
$LUNITS
 70
     2
  9
$LUPREC
 70
     4
  9
$SKETCHINC
 40
0.1
  9
$FILLETRAD
 40
0.0
  9
$AUNITS
 70
     0
  9
$AUPREC
 70
     0
  9
$MENU
  1
ACAD
  9
$ELEVATION
 40
0.0
  9
$PELEVATION
 40
0.0
  9
$THICKNESS
 40
0.0
  9
$LIMCHECK
 70
     0
  9
$BLIPMODE
 70
     1
  9
$CHAMFERA
 40
0.0
  9
$CHAMFERB
 40
0.0
  9
$CHAMFERC
 40
0.0
  9
$CHAMFERD
 40
0.0
  9
$SKPOLY
 70
     0
  9
$TDCREATE
 40
2447732.651236389
  9
$TDUPDATE
 40
2451950.860554051
  9
$TDINDWG
 40
0.1846291667
  9
$TDUSRTIMER
 40
0.1846291667
  9
$USRTIMER
 70
     1
  9
$ANGBASE
 50
0.0
  9
$ANGDIR
 70
     0
  9
$PDMODE
 70
     0
  9
$PDSIZE
 40
0.0
  9
$PLINEWID
 40
0.0
  9
$COORDS
 70
     0
  9
$SPLFRAME
 70
     0
  9
$SPLINETYPE
 70
     6
  9
$SPLINESEGS
 70
     8
  9
$ATTDIA
 70
     0
  9
$ATTREQ
 70
     1
  9
$HANDLING
 70
     1
  9
$HANDSEED
  5
1484
  9
$SURFTAB1
 70
     6
  9
$SURFTAB2
 70
     6
  9
$SURFTYPE
 70
     6
  9
$SURFU
 70
     6
  9
$SURFV
 70
     6
  9
$UCSNAME
  2

  9
$UCSORG
 10
0.0
 20
0.0
 30
0.0
  9
$UCSXDIR
 10
1.0
 20
0.0
 30
0.0
  9
$UCSYDIR
 10
0.0
 20
1.0
 30
0.0
  9
$PUCSNAME
  2

  9
$PUCSORG
 10
0.0
 20
0.0
 30
0.0
  9
$PUCSXDIR
 10
1.0
 20
0.0
 30
0.0
  9
$PUCSYDIR
 10
0.0
 20
1.0
 30
0.0
  9
$USERI1
 70
     0
  9
$USERI2
 70
     0
  9
$USERI3
 70
     0
  9
$USERI4
 70
     0
  9
$USERI5
 70
     0
  9
$USERR1
 40
0.0
  9
$USERR2
 40
0.0
  9
$USERR3
 40
0.0
  9
$USERR4
 40
0.0
  9
$USERR5
 40
0.0
  9
$WORLDVIEW
 70
     1
  9
$SHADEDGE
 70
     3
  9
$SHADEDIF
 70
    70
  9
$TILEMODE
 70
     1
  9
$MAXACTVP
 70
    48
  9
$PINSBASE
 10
0.0
 20
0.0
 30
0.0
  9
$PLIMCHECK
 70
     0
  9
$PEXTMIN
 10
1.000000E+20
 20
1.000000E+20
 30
1.000000E+20
  9
$PEXTMAX
 10
-1.000000E+20
 20
-1.000000E+20
 30
-1.000000E+20
  9
$PLIMMIN
 10
0.0
 20
0.0
  9
$PLIMMAX
 10
12.0
 20
9.0
  9
$UNITMODE
 70
     0
  9
$VISRETAIN
 70
     1
  9
$PLINEGEN
 70
     0
  9
$PSLTSCALE
 70
     1
  9
$TREEDEPTH
 70
  3020
  9
$PICKSTYLE
 70
     1
  9
$CMLSTYLE
  2
STANDARD
  9
$CMLJUST
 70
     0
  9
$CMLSCALE
 40
1.0
  9
$PROXYGRAPHICS
 70
     1
  9
$MEASUREMENT
 70
     0
  0
ENDSEC
  0
SECTION
  2
CLASSES
  0
CLASS
  1
LWPOLYLINE
  2
AcDbPolyline
  3
"AutoCAD"
 90
        0
280
     0
281
     1
  0
ENDSEC
  0
SECTION
  2
TABLES
  0
TABLE
  2
VPORT
  5
8
100
AcDbSymbolTable
 70
     1
  0
VPORT
  5
1480
100
AcDbSymbolTableRecord
100
AcDbViewportTableRecord
  2
*ACTIVE
 70
     0
 10
0.0
 20
0.0
 11
1.0
 21
1.0
 12
86.994998
 22
45.810618
 13
0.0
 23
0.0
 14
0.635
 24
0.635
 15
2.54
 25
2.54
 16
0.0
 26
0.0
 36
1.0
 17
0.0
 27
0.0
 37
0.0
 40
38.838662
 41
1.700368
 42
50.0
 43
0.0
 44
0.0
 50
0.0
 51
0.0
 71
     0
 72
   100
 73
     1
 74
     1
 75
     0
 76
     1
 77
     0
 78
     0
  0
ENDTAB
  0
TABLE
  2
LTYPE
  5
5
100
AcDbSymbolTable
 70
     1
  0
LTYPE
  5
12
100
AcDbSymbolTableRecord
100
AcDbLinetypeTableRecord
  2
BYBLOCK
 70
     0
  3

 72
    65
 73
     0
 40
0.0
  0
LTYPE
  5
13
100
AcDbSymbolTableRecord
100
AcDbLinetypeTableRecord
  2
BYLAYER
 70
     0
  3

 72
    65
 73
     0
 40
0.0
  0
LTYPE
  5
14
100
AcDbSymbolTableRecord
100
AcDbLinetypeTableRecord
  2
CONTINUOUS
 70
     0
  3
Solid line
 72
    65
 73
     0
 40
0.0
  0
ENDTAB
  0
TABLE
  2
LAYER
  5
2
100
AcDbSymbolTable
 70
     6
  0
LAYER
  5
E
100
AcDbSymbolTableRecord
100
AcDbLayerTableRecord
  2
0
 70
     0
 62
     7
  6
CONTINUOUS
  0
LAYER
  5
25
100
AcDbSymbolTableRecord
100
AcDbLayerTableRecord
  2
7
 70
     0
 62
     7
  6
CONTINUOUS
  0
LAYER
  5
B3C
100
AcDbSymbolTableRecord
100
AcDbLayerTableRecord
  2
PCB-TOP
 70
     0
 62
     1
  6
CONTINUOUS
  0
LAYER
  5
B3D
100
AcDbSymbolTableRecord
100
AcDbLayerTableRecord
  2
DEFPOINTS
 70
     0
 62
     7
  6
CONTINUOUS
  0
LAYER
  5
B3E
100
AcDbSymbolTableRecord
100
AcDbLayerTableRecord
  2
PCB-BOTT
 70
     0
 62
     5
  6
CONTINUOUS
  0
LAYER
  5
B3F
100
AcDbSymbolTableRecord
100
AcDbLayerTableRecord
  2
HOLE
 70
     0
 62
     2
  6
CONTINUOUS
  0
ENDTAB
  0
TABLE
  2
STYLE
  5
3
100
AcDbSymbolTable
 70
     1
  0
STYLE
  5
F
100
AcDbSymbolTableRecord
100
AcDbTextStyleTableRecord
  2
STANDARD
 70
     0
 40
0.0
 41
1.0
 50
0.0
 71
     0
 42
0.2
  3
TXT
  4

  0
ENDTAB
  0
TABLE
  2
VIEW
  5
6
100
AcDbSymbolTable
 70
     0
  0
ENDTAB
  0
TABLE
  2
UCS
  5
7
100
AcDbSymbolTable
 70
     0
  0
ENDTAB
  0
TABLE
  2
APPID
  5
9
100
AcDbSymbolTable
 70
     1
  0
APPID
  5
10
100
AcDbSymbolTableRecord
100
AcDbRegAppTableRecord
  2
ACAD
 70
     0
  0
ENDTAB
  0
TABLE
  2
DIMSTYLE
  5
A
100
AcDbSymbolTable
 70
     1
  0
DIMSTYLE
105
B31
100
AcDbSymbolTableRecord
100
AcDbDimStyleTableRecord
  2
STANDARD
 70
     0
  3

  4

  5

  6

  7

 40
1.0
 41
0.18
 42
0.0625
 43
0.38
 44
0.18
 45
0.0
 46
0.0
 47
0.0
 48
0.0
140
0.18
141
0.09
142
0.0
143
25.4
144
1.0
145
0.0
146
1.0
147
0.09
 71
     0
 72
     0
 73
     1
 74
     1
 75
     0
 76
     0
 77
     0
 78
     0
170
     0
171
     2
172
     0
173
     0
174
     0
175
     0
176
     0
177
     0
178
     0
270
     2
271
     4
272
     4
273
     2
274
     2
340
F
275
     0
280
     0
281
     0
282
     0
283
     1
284
     0
285
     0
286
     0
287
     3
288
     0
  0
ENDTAB
  0
TABLE
  2
BLOCK_RECORD
  5
1
100
AcDbSymbolTable
 70
     0
  0
BLOCK_RECORD
  5
18
100
AcDbSymbolTableRecord
100
AcDbBlockTableRecord
  2
*MODEL_SPACE
  0
BLOCK_RECORD
  5
15
100
AcDbSymbolTableRecord
100
AcDbBlockTableRecord
  2
*PAPER_SPACE
  0
ENDTAB
  0
ENDSEC
  0
SECTION
  2
BLOCKS
  0
BLOCK
  5
19
100
AcDbEntity
  8
0
100
AcDbBlockBegin
  2
*MODEL_SPACE
 70
     0
 10
0.0
 20
0.0
 30
0.0
  3
*MODEL_SPACE
  1

  0
ENDBLK
  5
1A
100
AcDbEntity
  8
0
100
AcDbBlockEnd
  0
BLOCK
  5
16
100
AcDbEntity
 67
     1
  8
0
100
AcDbBlockBegin
  2
*PAPER_SPACE
 70
     0
 10
0.0
 20
0.0
 30
0.0
  3
*PAPER_SPACE
  1

  0
ENDBLK
  5
17
100
AcDbEntity
 67
     1
  8
0
100
AcDbBlockEnd
  0
ENDSEC
  0
SECTION
  2
ENTITIES
  0
CIRCLE
  5
C30
102
{ACAD_REACTORS
330
E6A
102
}
100
AcDbEntity
  8
HOLE
100
AcDbCircle
 10
64.426636
 20
7.294531
 30
0.0
 40
0.15
  0
CIRCLE
  5
C31
102
{ACAD_REACTORS
330
E69
330
E6D
102
}
100
AcDbEntity
  8
PCB-TOP
100
AcDbCircle
 10
65.271884
 20
19.578656
 30
0.0
 40
0.15
  0
LWPOLYLINE
  5
C32
102
{ACAD_REACTORS
330
E6A
102
}
100
AcDbEntity
  8
PCB-TOP
  6
CONTINUOUS
100
AcDbPolyline
 90
        4
 70
     1
 43
0.0
 10
65.227136
 20
8.341031
 42
-1.0
 10
65.227136
 20
6.248031
 10
63.626136
 20
6.248031
 42
-1.0
 10
63.626136
 20
8.341031
  0
LWPOLYLINE
  5
C33
102
{ACAD_REACTORS
330
E6A
102
}
100
AcDbEntity
  8
PCB-TOP
  6
CONTINUOUS
100
AcDbPolyline
 90
        4
 70
     1
 43
0.0
 10
65.227136
 20
10.881031
 42
-1.0
 10
65.227136
 20
8.788031
 10
63.626136
 20
8.788031
 42
-1.0
 10
63.626136
 20
10.881031
  0
CIRCLE
  5
C34
102
{ACAD_REACTORS
330
E6A
102
}
100
AcDbEntity
  8
HOLE
100
AcDbCircle
 10
64.426636
 20
9.834531
 30
0.0
 40
0.15
  0
LWPOLYLINE
  5
C35
102
{ACAD_REACTORS
330
E6A
102
}
100
AcDbEntity
  8
PCB-TOP
  6
CONTINUOUS
100
AcDbPolyline
 90
        4
 70
     1
 43
0.0
 10
65.227136
 20
13.421031
 42
-1.0
 10
65.227136
 20
11.328031
 10
63.626136
 20
11.328031
 42
-1.0
 10
63.626136
 20
13.421031
  0
CIRCLE
  5
C36
102
{ACAD_REACTORS
330
E6A
102
}
100
AcDbEntity
  8
HOLE
100
AcDbCircle
 10
64.426636
 20
12.374531
 30
0.0
 40
0.15
  0
LWPOLYLINE
  5
C37
102
{ACAD_REACTORS
330
E6A
102
}
100
AcDbEntity
  8
PCB-TOP
  6
CONTINUOUS
100
AcDbPolyline
 90
        4
 70
     1
 43
0.0
 10
65.227136
 20
15.961031
 42
-1.0
 10
65.227136
 20
13.868031
 10
63.626136
 20
13.868031
 42
-1.0
 10
63.626136
 20
15.961031
  0
CIRCLE
  5
C38
102
{ACAD_REACTORS
330
E6A
102
}
100
AcDbEntity
  8
HOLE
100
AcDbCircle
 10
64.426636
 20
14.914531
 30
0.0
 40
0.15
  0
LWPOLYLINE
  5
C39
102
{ACAD_REACTORS
330
E6A
102
}
100
AcDbEntity
  8
PCB-TOP
  6
CONTINUOUS
100
AcDbPolyline
 90
        4
 70
     1
 43
0.0
 10
72.927136
 20
8.341031
 42
-1.0
 10
72.927136
 20
6.248031
 10
71.326136
 20
6.248031
 42
-1.0
 10
71.326136
 20
8.341031
  0
CIRCLE
  5
C3A
102
{ACAD_REACTORS
330
E6A
102
}
100
AcDbEntity
  8
HOLE
100
AcDbCircle
 10
72.126636
 20
7.294531
 30
0.0
 40
0.15
  0
LWPOLYLINE
  5
C3B
102
{ACAD_REACTORS
330
E6A
102
}
100
AcDbEntity
  8
PCB-TOP
  6
CONTINUOUS
100
AcDbPolyline
 90
        4
 70
     1
 43
0.0
 10
72.927136
 20
10.881031
 42
-1.0
 10
72.927136
 20
8.788031
 10
71.326136
 20
8.788031
 42
-1.0
 10
71.326136
 20
10.881031
  0
CIRCLE
  5
C3C
102
{ACAD_REACTORS
330
E6A
102
}
100
AcDbEntity
  8
HOLE
100
AcDbCircle
 10
72.126636
 20
9.834531
 30
0.0
 40
0.15
  0
LWPOLYLINE
  5
C3D
102
{ACAD_REACTORS
330
E6A
102
}
100
AcDbEntity
  8
PCB-TOP
  6
CONTINUOUS
100
AcDbPolyline
 90
        4
 70
     1
 43
0.0
 10
72.927136
 20
13.421031
 42
-1.0
 10
72.927136
 20
11.328031
 10
71.326136
 20
11.328031
 42
-1.0
 10
71.326136
 20
13.421031
  0
CIRCLE
  5
C3E
102
{ACAD_REACTORS
330
E6A
102
}
100
AcDbEntity
  8
HOLE
100
AcDbCircle
 10
72.126636
 20
12.374531
 30
0.0
 40
0.15
  0
LWPOLYLINE
  5
C3F
102
{ACAD_REACTORS
330
E6A
102
}
100
AcDbEntity
  8
PCB-TOP
  6
CONTINUOUS
100
AcDbPolyline
 90
        4
 70
     1
 43
0.0
 10
72.927136
 20
15.961031
 42
-1.0
 10
72.927136
 20
13.868031
 10
71.326136
 20
13.868031
 42
-1.0
 10
71.326136
 20
15.961031
  0
CIRCLE
  5
C40
102
{ACAD_REACTORS
330
E6A
102
}
100
AcDbEntity
  8
HOLE
100
AcDbCircle
 10
72.126636
 20
14.914531
 30
0.0
 40
0.15
  0
LWPOLYLINE
  5
C41
102
{ACAD_REACTORS
330
E6B
102
}
100
AcDbEntity
  8
PCB-TOP
  6
CONTINUOUS
100
AcDbPolyline
 90
        4
 70
     1
 43
0.0
 10
81.290129
 20
8.341031
 42
-1.0
 10
81.290129
 20
6.248031
 10
79.689129
 20
6.248031
 42
-1.0
 10
79.689129
 20
8.341031
  0
CIRCLE
  5
C42
102
{ACAD_REACTORS
330
E6B
102
}
100
AcDbEntity
  8
HOLE
100
AcDbCircle
 10
80.489629
 20
7.294531
 30
0.0
 40
0.15
  0
LWPOLYLINE
  5
C43
102
{ACAD_REACTORS
330
E6B
102
}
100
AcDbEntity
  8
PCB-TOP
  6
CONTINUOUS
100
AcDbPolyline
 90
        4
 70
     1
 43
0.0
 10
81.290129
 20
10.881031
 42
-1.0
 10
81.290129
 20
8.788031
 10
79.689129
 20
8.788031
 42
-1.0
 10
79.689129
 20
10.881031
  0
CIRCLE
  5
C44
102
{ACAD_REACTORS
330
E6B
102
}
100
AcDbEntity
  8
HOLE
100
AcDbCircle
 10
80.489629
 20
9.834531
 30
0.0
 40
0.15
  0
LWPOLYLINE
  5
C45
102
{ACAD_REACTORS
330
E6B
102
}
100
AcDbEntity
  8
PCB-TOP
  6
CONTINUOUS
100
AcDbPolyline
 90
        4
 70
     1
 43
0.0
 10
81.290129
 20
13.421031
 42
-1.0
 10
81.290129
 20
11.328031
 10
79.689129
 20
11.328031
 42
-1.0
 10
79.689129
 20
13.421031
  0
CIRCLE
  5
C46
102
{ACAD_REACTORS
330
E6B
102
}
100
AcDbEntity
  8
HOLE
100
AcDbCircle
 10
80.489629
 20
12.374531
 30
0.0
 40
0.15
  0
LWPOLYLINE
  5
C47
102
{ACAD_REACTORS
330
E6B
102
}
100
AcDbEntity
  8
PCB-TOP
  6
CONTINUOUS
100
AcDbPolyline
 90
        4
 70
     1
 43
0.0
 10
81.290129
 20
15.961031
 42
-1.0
 10
81.290129
 20
13.868031
 10
79.689129
 20
13.868031
 42
-1.0
 10
79.689129
 20
15.961031
  0
CIRCLE
  5
C48
102
{ACAD_REACTORS
330
E6B
102
}
100
AcDbEntity
  8
HOLE
100
AcDbCircle
 10
80.489629
 20
14.914531
 30
0.0
 40
0.15
  0
LWPOLYLINE
  5
C49
102
{ACAD_REACTORS
330
E6B
102
}
100
AcDbEntity
  8
PCB-TOP
  6
CONTINUOUS
100
AcDbPolyline
 90
        4
 70
     1
 43
0.0
 10
81.290129
 20
18.501031
 42
-1.0
 10
81.290129
 20
16.408031
 10
79.689129
 20
16.408031
 42
-1.0
 10
79.689129
 20
18.501031
  0
CIRCLE
  5
C4A
102
{ACAD_REACTORS
330
E6B
102
}
100
AcDbEntity
  8
HOLE
100
AcDbCircle
 10
80.489629
 20
17.454531
 30
0.0
 40
0.15
  0
LWPOLYLINE
  5
C4B
102
{ACAD_REACTORS
330
E6B
102
}
100
AcDbEntity
  8
PCB-TOP
  6
CONTINUOUS
100
AcDbPolyline
 90
        4
 70
     1
 43
0.0
 10
81.290129
 20
21.041031
 42
-1.0
 10
81.290129
 20
18.948031
 10
79.689129
 20
18.948031
 42
-1.0
 10
79.689129
 20
21.041031
  0
CIRCLE
  5
C4C
102
{ACAD_REACTORS
330
E6B
102
}
100
AcDbEntity
  8
HOLE
100
AcDbCircle
 10
80.489629
 20
19.994531
 30
0.0
 40
0.15
  0
LWPOLYLINE
  5
C4D
102
{ACAD_REACTORS
330
E6B
102
}
100
AcDbEntity
  8
PCB-TOP
  6
CONTINUOUS
100
AcDbPolyline
 90
        4
 70
     1
 43
0.0
 10
81.290129
 20
23.581031
 42
-1.0
 10
81.290129
 20
21.488031
 10
79.689129
 20
21.488031
 42
-1.0
 10
79.689129
 20
23.581031
  0
CIRCLE
  5
C4E
102
{ACAD_REACTORS
330
E6B
102
}
100
AcDbEntity
  8
HOLE
100
AcDbCircle
 10
80.489629
 20
22.534531
 30
0.0
 40
0.15
  0
LWPOLYLINE
  5
C4F
102
{ACAD_REACTORS
330
E6B
102
}
100
AcDbEntity
  8
PCB-TOP
  6
CONTINUOUS
100
AcDbPolyline
 90
        4
 70
     1
 43
0.0
 10
88.990129
 20
8.341031
 42
-1.0
 10
88.990129
 20
6.248031
 10
87.389129
 20
6.248031
 42
-1.0
 10
87.389129
 20
8.341031
  0
CIRCLE
  5
C50
102
{ACAD_REACTORS
330
E6B
102
}
100
AcDbEntity
  8
HOLE
100
AcDbCircle
 10
88.189629
 20
7.294531
 30
0.0
 40
0.15
  0
LWPOLYLINE
  5
C51
102
{ACAD_REACTORS
330
E6B
102
}
100
AcDbEntity
  8
PCB-TOP
  6
CONTINUOUS
100
AcDbPolyline
 90
        4
 70
     1
 43
0.0
 10
88.990129
 20
10.881031
 42
-1.0
 10
88.990129
 20
8.788031
 10
87.389129
 20
8.788031
 42
-1.0
 10
87.389129
 20
10.881031
  0
CIRCLE
  5
C52
102
{ACAD_REACTORS
330
E6B
102
}
100
AcDbEntity
  8
HOLE
100
AcDbCircle
 10
88.189629
 20
9.834531
 30
0.0
 40
0.15
  0
LWPOLYLINE
  5
C53
102
{ACAD_REACTORS
330
E6B
102
}
100
AcDbEntity
  8
PCB-TOP
  6
CONTINUOUS
100
AcDbPolyline
 90
        4
 70
     1
 43
0.0
 10
88.990129
 20
13.421031
 42
-1.0
 10
88.990129
 20
11.328031
 10
87.389129
 20
11.328031
 42
-1.0
 10
87.389129
 20
13.421031
  0
CIRCLE
  5
C54
102
{ACAD_REACTORS
330
E6B
102
}
100
AcDbEntity
  8
HOLE
100
AcDbCircle
 10
88.189629
 20
12.374531
 30
0.0
 40
0.15
  0
LWPOLYLINE
  5
C55
102
{ACAD_REACTORS
330
E6B
102
}
100
AcDbEntity
  8
PCB-TOP
  6
CONTINUOUS
100
AcDbPolyline
 90
        4
 70
     1
 43
0.0
 10
88.990129
 20
15.961031
 42
-1.0
 10
88.990129
 20
13.868031
 10
87.389129
 20
13.868031
 42
-1.0
 10
87.389129
 20
15.961031
  0
CIRCLE
  5
C56
102
{ACAD_REACTORS
330
E6B
102
}
100
AcDbEntity
  8
HOLE
100
AcDbCircle
 10
88.189629
 20
14.914531
 30
0.0
 40
0.15
  0
LWPOLYLINE
  5
C57
102
{ACAD_REACTORS
330
E6B
102
}
100
AcDbEntity
  8
PCB-TOP
  6
CONTINUOUS
100
AcDbPolyline
 90
        4
 70
     1
 43
0.0
 10
88.990129
 20
18.501031
 42
-1.0
 10
88.990129
 20
16.408031
 10
87.389129
 20
16.408031
 42
-1.0
 10
87.389129
 20
18.501031
  0
CIRCLE
  5
C58
102
{ACAD_REACTORS
330
E6B
102
}
100
AcDbEntity
  8
HOLE
100
AcDbCircle
 10
88.189629
 20
17.454531
 30
0.0
 40
0.15
  0
LWPOLYLINE
  5
C59
102
{ACAD_REACTORS
330
E6B
102
}
100
AcDbEntity
  8
PCB-TOP
  6
CONTINUOUS
100
AcDbPolyline
 90
        4
 70
     1
 43
0.0
 10
88.990129
 20
21.041031
 42
-1.0
 10
88.990129
 20
18.948031
 10
87.389129
 20
18.948031
 42
-1.0
 10
87.389129
 20
21.041031
  0
CIRCLE
  5
C5A
102
{ACAD_REACTORS
330
E6B
102
}
100
AcDbEntity
  8
HOLE
100
AcDbCircle
 10
88.189629
 20
19.994531
 30
0.0
 40
0.15
  0
LWPOLYLINE
  5
C5B
102
{ACAD_REACTORS
330
E6B
102
}
100
AcDbEntity
  8
PCB-TOP
  6
CONTINUOUS
100
AcDbPolyline
 90
        4
 70
     1
 43
0.0
 10
88.990129
 20
23.581031
 42
-1.0
 10
88.990129
 20
21.488031
 10
87.389129
 20
21.488031
 42
-1.0
 10
87.389129
 20
23.581031
  0
CIRCLE
  5
C5C
102
{ACAD_REACTORS
330
E6B
102
}
100
AcDbEntity
  8
HOLE
100
AcDbCircle
 10
88.189629
 20
22.534531
 30
0.0
 40
0.15
  0
LWPOLYLINE
  5
C5D
102
{ACAD_REACTORS
330
E6C
102
}
100
AcDbEntity
  8
PCB-TOP
  6
CONTINUOUS
100
AcDbPolyline
 90
        4
 70
     1
 43
0.0
 10
96.401448
 20
8.341031
 42
-1.0
 10
96.401448
 20
6.248031
 10
94.800448
 20
6.248031
 42
-1.0
 10
94.800448
 20
8.341031
  0
CIRCLE
  5
C5E
102
{ACAD_REACTORS
330
E6C
102
}
100
AcDbEntity
  8
HOLE
100
AcDbCircle
 10
95.600948
 20
7.294531
 30
0.0
 40
0.15
  0
LWPOLYLINE
  5
C5F
102
{ACAD_REACTORS
330
E6C
102
}
100
AcDbEntity
  8
PCB-TOP
  6
CONTINUOUS
100
AcDbPolyline
 90
        4
 70
     1
 43
0.0
 10
96.401448
 20
10.881031
 42
-1.0
 10
96.401448
 20
8.788031
 10
94.800448
 20
8.788031
 42
-1.0
 10
94.800448
 20
10.881031
  0
CIRCLE
  5
C60
102
{ACAD_REACTORS
330
E6C
102
}
100
AcDbEntity
  8
HOLE
100
AcDbCircle
 10
95.600948
 20
9.834531
 30
0.0
 40
0.15
  0
LWPOLYLINE
  5
C61
102
{ACAD_REACTORS
330
E6C
102
}
100
AcDbEntity
  8
PCB-TOP
  6
CONTINUOUS
100
AcDbPolyline
 90
        4
 70
     1
 43
0.0
 10
96.401448
 20
13.421031
 42
-1.0
 10
96.401448
 20
11.328031
 10
94.800448
 20
11.328031
 42
-1.0
 10
94.800448
 20
13.421031
  0
CIRCLE
  5
C62
102
{ACAD_REACTORS
330
E6C
102
}
100
AcDbEntity
  8
HOLE
100
AcDbCircle
 10
95.600948
 20
12.374531
 30
0.0
 40
0.15
  0
LWPOLYLINE
  5
C63
102
{ACAD_REACTORS
330
E6C
102
}
100
AcDbEntity
  8
PCB-TOP
  6
CONTINUOUS
100
AcDbPolyline
 90
        4
 70
     1
 43
0.0
 10
96.401448
 20
15.961031
 42
-1.0
 10
96.401448
 20
13.868031
 10
94.800448
 20
13.868031
 42
-1.0
 10
94.800448
 20
15.961031
  0
CIRCLE
  5
C64
102
{ACAD_REACTORS
330
E6C
102
}
100
AcDbEntity
  8
HOLE
100
AcDbCircle
 10
95.600948
 20
14.914531
 30
0.0
 40
0.15
  0
LWPOLYLINE
  5
C65
102
{ACAD_REACTORS
330
E6C
102
}
100
AcDbEntity
  8
PCB-TOP
  6
CONTINUOUS
100
AcDbPolyline
 90
        4
 70
     1
 43
0.0
 10
96.401448
 20
18.501031
 42
-1.0
 10
96.401448
 20
16.408031
 10
94.800448
 20
16.408031
 42
-1.0
 10
94.800448
 20
18.501031
  0
CIRCLE
  5
C66
102
{ACAD_REACTORS
330
E6C
102
}
100
AcDbEntity
  8
HOLE
100
AcDbCircle
 10
95.600948
 20
17.454531
 30
0.0
 40
0.15
  0
LWPOLYLINE
  5
C67
102
{ACAD_REACTORS
330
E6C
102
}
100
AcDbEntity
  8
PCB-TOP
  6
CONTINUOUS
100
AcDbPolyline
 90
        4
 70
     1
 43
0.0
 10
96.401448
 20
21.041031
 42
-1.0
 10
96.401448
 20
18.948031
 10
94.800448
 20
18.948031
 42
-1.0
 10
94.800448
 20
21.041031
  0
CIRCLE
  5
C68
102
{ACAD_REACTORS
330
E6C
102
}
100
AcDbEntity
  8
HOLE
100
AcDbCircle
 10
95.600948
 20
19.994531
 30
0.0
 40
0.15
  0
LWPOLYLINE
  5
C69
102
{ACAD_REACTORS
330
E6C
102
}
100
AcDbEntity
  8
PCB-TOP
  6
CONTINUOUS
100
AcDbPolyline
 90
        4
 70
     1
 43
0.0
 10
96.401448
 20
23.581031
 42
-1.0
 10
96.401448
 20
21.488031
 10
94.800448
 20
21.488031
 42
-1.0
 10
94.800448
 20
23.581031
  0
CIRCLE
  5
C6A
102
{ACAD_REACTORS
330
E6C
102
}
100
AcDbEntity
  8
HOLE
100
AcDbCircle
 10
95.600948
 20
22.534531
 30
0.0
 40
0.15
  0
LWPOLYLINE
  5
C6B
102
{ACAD_REACTORS
330
E6C
102
}
100
AcDbEntity
  8
PCB-TOP
  6
CONTINUOUS
100
AcDbPolyline
 90
        4
 70
     1
 43
0.0
 10
96.401448
 20
26.121031
 42
-1.0
 10
96.401448
 20
24.028031
 10
94.800448
 20
24.028031
 42
-1.0
 10
94.800448
 20
26.121031
  0
CIRCLE
  5
C6C
102
{ACAD_REACTORS
330
E6C
102
}
100
AcDbEntity
  8
HOLE
100
AcDbCircle
 10
95.600948
 20
25.074531
 30
0.0
 40
0.15
  0
LWPOLYLINE
  5
C6D
102
{ACAD_REACTORS
330
E6C
102
}
100
AcDbEntity
  8
PCB-TOP
  6
CONTINUOUS
100
AcDbPolyline
 90
        4
 70
     1
 43
0.0
 10
104.101448
 20
8.341031
 42
-1.0
 10
104.101448
 20
6.248031
 10
102.500448
 20
6.248031
 42
-1.0
 10
102.500448
 20
8.341031
  0
CIRCLE
  5
C6E
102
{ACAD_REACTORS
330
E6C
102
}
100
AcDbEntity
  8
HOLE
100
AcDbCircle
 10
103.300948
 20
7.294531
 30
0.0
 40
0.15
  0
LWPOLYLINE
  5
C6F
102
{ACAD_REACTORS
330
E6C
102
}
100
AcDbEntity
  8
PCB-TOP
  6
CONTINUOUS
100
AcDbPolyline
 90
        4
 70
     1
 43
0.0
 10
104.101448
 20
10.881031
 42
-1.0
 10
104.101448
 20
8.788031
 10
102.500448
 20
8.788031
 42
-1.0
 10
102.500448
 20
10.881031
  0
CIRCLE
  5
C70
102
{ACAD_REACTORS
330
E6C
102
}
100
AcDbEntity
  8
HOLE
100
AcDbCircle
 10
103.300948
 20
9.834531
 30
0.0
 40
0.15
  0
LWPOLYLINE
  5
C71
102
{ACAD_REACTORS
330
E6C
102
}
100
AcDbEntity
  8
PCB-TOP
  6
CONTINUOUS
100
AcDbPolyline
 90
        4
 70
     1
 43
0.0
 10
104.101448
 20
13.421031
 42
-1.0
 10
104.101448
 20
11.328031
 10
102.500448
 20
11.328031
 42
-1.0
 10
102.500448
 20
13.421031
  0
CIRCLE
  5
C72
102
{ACAD_REACTORS
330
E6C
102
}
100
AcDbEntity
  8
HOLE
100
AcDbCircle
 10
103.300948
 20
12.374531
 30
0.0
 40
0.15
  0
LWPOLYLINE
  5
C73
102
{ACAD_REACTORS
330
E6C
102
}
100
AcDbEntity
  8
PCB-TOP
  6
CONTINUOUS
100
AcDbPolyline
 90
        4
 70
     1
 43
0.0
 10
104.101448
 20
15.961031
 42
-1.0
 10
104.101448
 20
13.868031
 10
102.500448
 20
13.868031
 42
-1.0
 10
102.500448
 20
15.961031
  0
CIRCLE
  5
C74
102
{ACAD_REACTORS
330
E6C
102
}
100
AcDbEntity
  8
HOLE
100
AcDbCircle
 10
103.300948
 20
14.914531
 30
0.0
 40
0.15
  0
LWPOLYLINE
  5
C75
102
{ACAD_REACTORS
330
E6C
102
}
100
AcDbEntity
  8
PCB-TOP
  6
CONTINUOUS
100
AcDbPolyline
 90
        4
 70
     1
 43
0.0
 10
104.101448
 20
18.501031
 42
-1.0
 10
104.101448
 20
16.408031
 10
102.500448
 20
16.408031
 42
-1.0
 10
102.500448
 20
18.501031
  0
CIRCLE
  5
C76
102
{ACAD_REACTORS
330
E6C
102
}
100
AcDbEntity
  8
HOLE
100
AcDbCircle
 10
103.300948
 20
17.454531
 30
0.0
 40
0.15
  0
LWPOLYLINE
  5
C77
102
{ACAD_REACTORS
330
E6C
102
}
100
AcDbEntity
  8
PCB-TOP
  6
CONTINUOUS
100
AcDbPolyline
 90
        4
 70
     1
 43
0.0
 10
104.101448
 20
21.041031
 42
-1.0
 10
104.101448
 20
18.948031
 10
102.500448
 20
18.948031
 42
-1.0
 10
102.500448
 20
21.041031
  0
CIRCLE
  5
C78
102
{ACAD_REACTORS
330
E6C
102
}
100
AcDbEntity
  8
HOLE
100
AcDbCircle
 10
103.300948
 20
19.994531
 30
0.0
 40
0.15
  0
LWPOLYLINE
  5
C79
102
{ACAD_REACTORS
330
E6C
102
}
100
AcDbEntity
  8
PCB-TOP
  6
CONTINUOUS
100
AcDbPolyline
 90
        4
 70
     1
 43
0.0
 10
104.101448
 20
23.581031
 42
-1.0
 10
104.101448
 20
21.488031
 10
102.500448
 20
21.488031
 42
-1.0
 10
102.500448
 20
23.581031
  0
CIRCLE
  5
C7A
102
{ACAD_REACTORS
330
E6C
102
}
100
AcDbEntity
  8
HOLE
100
AcDbCircle
 10
103.300948
 20
22.534531
 30
0.0
 40
0.15
  0
LWPOLYLINE
  5
C7B
102
{ACAD_REACTORS
330
E6C
102
}
100
AcDbEntity
  8
PCB-TOP
  6
CONTINUOUS
100
AcDbPolyline
 90
        4
 70
     1
 43
0.0
 10
104.101448
 20
26.121031
 42
-1.0
 10
104.101448
 20
24.028031
 10
102.500448
 20
24.028031
 42
-1.0
 10
102.500448
 20
26.121031
  0
CIRCLE
  5
C7C
102
{ACAD_REACTORS
330
E6C
102
}
100
AcDbEntity
  8
HOLE
100
AcDbCircle
 10
103.300948
 20
25.074531
 30
0.0
 40
0.15
  0
CIRCLE
  5
C7D
102
{ACAD_REACTORS
330
E69
330
E6D
102
}
100
AcDbEntity
  8
HOLE
100
AcDbCircle
 10
65.271884
 20
19.578656
 30
0.0
 40
0.15
  0
CIRCLE
  5
C7E
102
{ACAD_REACTORS
330
E69
330
E6D
102
}
100
AcDbEntity
  8
PCB-TOP
100
AcDbCircle
 10
65.271884
 20
19.578656
 30
0.0
 40
1.25
  0
CIRCLE
  5
E6E
102
{ACAD_REACTORS
330
E71
330
E72
102
}
100
AcDbEntity
  8
PCB-TOP
100
AcDbCircle
 10
66.04
 20
34.925
 30
0.0
 40
1.25
  0
CIRCLE
  5
E6F
102
{ACAD_REACTORS
330
E71
330
E72
102
}
100
AcDbEntity
  8
PCB-TOP
100
AcDbCircle
 10
66.04
 20
34.925
 30
0.0
 40
0.15
  0
CIRCLE
  5
E70
102
{ACAD_REACTORS
330
E71
330
E72
102
}
100
AcDbEntity
  8
PCB-TOP
100
AcDbCircle
 10
66.04
 20
34.925
 30
0.0
 40
0.15
  0
ARC
  5
E73
102
{ACAD_REACTORS
330
E76
330
E77
102
}
100
AcDbEntity
  8
PCB-TOP
100
AcDbCircle
 10
68.58
 20
34.925
 30
0.0
 40
1.25
100
AcDbArc
 50
100.304846
 51
26.565051
  0
CIRCLE
  5
E74
102
{ACAD_REACTORS
330
E76
330
E77
102
}
100
AcDbEntity
  8
PCB-TOP
100
AcDbCircle
 10
68.58
 20
34.925
 30
0.0
 40
0.15
  0
CIRCLE
  5
E75
102
{ACAD_REACTORS
330
E76
330
E77
102
}
100
AcDbEntity
  8
PCB-TOP
100
AcDbCircle
 10
68.58
 20
34.925
 30
0.0
 40
0.15
  0
CIRCLE
  5
E78
102
{ACAD_REACTORS
330
E7B
330
E7C
102
}
100
AcDbEntity
  8
PCB-TOP
100
AcDbCircle
 10
71.12
 20
34.925
 30
0.0
 40
1.25
  0
CIRCLE
  5
E79
102
{ACAD_REACTORS
330
E7B
330
E7C
102
}
100
AcDbEntity
  8
PCB-TOP
100
AcDbCircle
 10
71.12
 20
34.925
 30
0.0
 40
0.15
  0
CIRCLE
  5
E7A
102
{ACAD_REACTORS
330
E7B
330
E7C
102
}
100
AcDbEntity
  8
PCB-TOP
100
AcDbCircle
 10
71.12
 20
34.925
 30
0.0
 40
0.15
  0
CIRCLE
  5
E7D
102
{ACAD_REACTORS
330
E80
330
E81
102
}
100
AcDbEntity
  8
PCB-TOP
100
AcDbCircle
 10
73.66
 20
34.925
 30
0.0
 40
1.25
  0
CIRCLE
  5
E7E
102
{ACAD_REACTORS
330
E80
330
E81
102
}
100
AcDbEntity
  8
PCB-TOP
100
AcDbCircle
 10
73.66
 20
34.925
 30
0.0
 40
0.15
  0
CIRCLE
  5
E7F
102
{ACAD_REACTORS
330
E80
330
E81
102
}
100
AcDbEntity
  8
PCB-TOP
100
AcDbCircle
 10
73.66
 20
34.925
 30
0.0
 40
0.15
  0
CIRCLE
  5
E82
102
{ACAD_REACTORS
330
E85
330
E86
102
}
100
AcDbEntity
  8
PCB-TOP
100
AcDbCircle
 10
76.2
 20
34.925
 30
0.0
 40
1.25
  0
CIRCLE
  5
E83
102
{ACAD_REACTORS
330
E85
330
E86
102
}
100
AcDbEntity
  8
PCB-TOP
100
AcDbCircle
 10
76.2
 20
34.925
 30
0.0
 40
0.15
  0
CIRCLE
  5
E84
102
{ACAD_REACTORS
330
E85
330
E86
102
}
100
AcDbEntity
  8
PCB-TOP
100
AcDbCircle
 10
76.2
 20
34.925
 30
0.0
 40
0.15
  0
CIRCLE
  5
E87
102
{ACAD_REACTORS
330
E8A
330
E8B
102
}
100
AcDbEntity
  8
PCB-TOP
100
AcDbCircle
 10
78.74
 20
34.925
 30
0.0
 40
1.25
  0
CIRCLE
  5
E88
102
{ACAD_REACTORS
330
E8A
330
E8B
102
}
100
AcDbEntity
  8
PCB-TOP
100
AcDbCircle
 10
78.74
 20
34.925
 30
0.0
 40
0.15
  0
CIRCLE
  5
E89
102
{ACAD_REACTORS
330
E8A
330
E8B
102
}
100
AcDbEntity
  8
PCB-TOP
100
AcDbCircle
 10
78.74
 20
34.925
 30
0.0
 40
0.15
  0
CIRCLE
  5
E8C
102
{ACAD_REACTORS
330
E8F
330
E90
102
}
100
AcDbEntity
  8
PCB-TOP
100
AcDbCircle
 10
83.82
 20
34.925
 30
0.0
 40
1.25
  0
CIRCLE
  5
E8D
102
{ACAD_REACTORS
330
E8F
330
E90
102
}
100
AcDbEntity
  8
PCB-TOP
100
AcDbCircle
 10
83.82
 20
34.925
 30
0.0
 40
0.15
  0
CIRCLE
  5
E8E
102
{ACAD_REACTORS
330
E8F
330
E90
102
}
100
AcDbEntity
  8
PCB-TOP
100
AcDbCircle
 10
83.82
 20
34.925
 30
0.0
 40
0.15
  0
CIRCLE
  5
E91
102
{ACAD_REACTORS
330
E94
330
E95
102
}
100
AcDbEntity
  8
PCB-TOP
100
AcDbCircle
 10
83.82
 20
40.005
 30
0.0
 40
1.25
  0
CIRCLE
  5
E92
102
{ACAD_REACTORS
330
E94
330
E95
102
}
100
AcDbEntity
  8
PCB-TOP
100
AcDbCircle
 10
83.82
 20
40.005
 30
0.0
 40
0.15
  0
CIRCLE
  5
E93
102
{ACAD_REACTORS
330
E94
330
E95
102
}
100
AcDbEntity
  8
PCB-TOP
100
AcDbCircle
 10
83.82
 20
40.005
 30
0.0
 40
0.15
  0
ARC
  5
E96
102
{ACAD_REACTORS
330
E99
330
E9A
102
}
100
AcDbEntity
  8
PCB-TOP
100
AcDbCircle
 10
78.74
 20
40.005
 30
0.0
 40
1.25
100
AcDbArc
 50
88.210089
 51
14.470294
  0
CIRCLE
  5
E97
102
{ACAD_REACTORS
330
E99
330
E9A
102
}
100
AcDbEntity
  8
PCB-TOP
100
AcDbCircle
 10
78.74
 20
40.005
 30
0.0
 40
0.15
  0
CIRCLE
  5
E98
102
{ACAD_REACTORS
330
E99
330
E9A
102
}
100
AcDbEntity
  8
PCB-TOP
100
AcDbCircle
 10
78.74
 20
40.005
 30
0.0
 40
0.15
  0
ARC
  5
EA0
102
{ACAD_REACTORS
330
EA3
330
EA4
102
}
100
AcDbEntity
  8
PCB-TOP
100
AcDbCircle
 10
73.66
 20
40.005
 30
0.0
 40
1.25
100
AcDbArc
 50
333.434949
 51
259.695154
  0
CIRCLE
  5
EA1
102
{ACAD_REACTORS
330
EA3
330
EA4
102
}
100
AcDbEntity
  8
PCB-TOP
100
AcDbCircle
 10
73.66
 20
40.005
 30
0.0
 40
0.15
  0
CIRCLE
  5
EA2
102
{ACAD_REACTORS
330
EA3
330
EA4
102
}
100
AcDbEntity
  8
PCB-TOP
100
AcDbCircle
 10
73.66
 20
40.005
 30
0.0
 40
0.15
  0
ARC
  5
EA5
102
{ACAD_REACTORS
330
EA8
330
EA9
102
}
100
AcDbEntity
  8
PCB-TOP
100
AcDbCircle
 10
71.12
 20
40.005
 30
0.0
 40
1.25
100
AcDbArc
 50
280.304846
 51
39.093859
  0
CIRCLE
  5
EA6
102
{ACAD_REACTORS
330
EA8
330
EA9
102
}
100
AcDbEntity
  8
PCB-TOP
100
AcDbCircle
 10
71.12
 20
40.005
 30
0.0
 40
0.15
  0
CIRCLE
  5
EA7
102
{ACAD_REACTORS
330
EA8
330
EA9
102
}
100
AcDbEntity
  8
PCB-TOP
100
AcDbCircle
 10
71.12
 20
40.005
 30
0.0
 40
0.15
  0
CIRCLE
  5
EAA
102
{ACAD_REACTORS
330
EAD
330
EAE
102
}
100
AcDbEntity
  8
PCB-TOP
100
AcDbCircle
 10
68.58
 20
40.005
 30
0.0
 40
1.25
  0
CIRCLE
  5
EAB
102
{ACAD_REACTORS
330
EAD
330
EAE
102
}
100
AcDbEntity
  8
PCB-TOP
100
AcDbCircle
 10
68.58
 20
40.005
 30
0.0
 40
0.15
  0
CIRCLE
  5
EAC
102
{ACAD_REACTORS
330
EAD
330
EAE
102
}
100
AcDbEntity
  8
PCB-TOP
100
AcDbCircle
 10
68.58
 20
40.005
 30
0.0
 40
0.15
  0
ARC
  5
EAF
102
{ACAD_REACTORS
330
EB2
330
EB3
102
}
100
AcDbEntity
  8
PCB-TOP
100
AcDbCircle
 10
66.04
 20
40.005
 30
0.0
 40
1.25
100
AcDbArc
 50
96.61346
 51
22.873665
  0
CIRCLE
  5
EB0
102
{ACAD_REACTORS
330
EB2
330
EB3
102
}
100
AcDbEntity
  8
PCB-TOP
100
AcDbCircle
 10
66.04
 20
40.005
 30
0.0
 40
0.15
  0
CIRCLE
  5
EB1
102
{ACAD_REACTORS
330
EB2
330
EB3
102
}
100
AcDbEntity
  8
PCB-TOP
100
AcDbCircle
 10
66.04
 20
40.005
 30
0.0
 40
0.15
  0
ARC
  5
EB4
102
{ACAD_REACTORS
330
EB7
330
EB8
102
}
100
AcDbEntity
  8
PCB-TOP
100
AcDbCircle
 10
88.9
 20
36.83
 30
0.0
 40
1.25
100
AcDbArc
 50
202.833654
 51
334.440035
  0
CIRCLE
  5
EB5
102
{ACAD_REACTORS
330
EB7
330
EB8
102
}
100
AcDbEntity
  8
PCB-TOP
100
AcDbCircle
 10
88.9
 20
36.83
 30
0.0
 40
0.15
  0
CIRCLE
  5
EB6
102
{ACAD_REACTORS
330
EB7
330
EB8
102
}
100
AcDbEntity
  8
PCB-TOP
100
AcDbCircle
 10
88.9
 20
36.83
 30
0.0
 40
0.15
  0
CIRCLE
  5
EB9
102
{ACAD_REACTORS
330
EBC
330
EBD
102
}
100
AcDbEntity
  8
PCB-TOP
100
AcDbCircle
 10
88.9
 20
39.37
 30
0.0
 40
1.25
  0
CIRCLE
  5
EBA
102
{ACAD_REACTORS
330
EBC
330
EBD
102
}
100
AcDbEntity
  8
PCB-TOP
100
AcDbCircle
 10
88.9
 20
39.37
 30
0.0
 40
0.15
  0
CIRCLE
  5
EBB
102
{ACAD_REACTORS
330
EBC
330
EBD
102
}
100
AcDbEntity
  8
PCB-TOP
100
AcDbCircle
 10
88.9
 20
39.37
 30
0.0
 40
0.15
  0
CIRCLE
  5
EBE
102
{ACAD_REACTORS
330
EC1
330
EC2
102
}
100
AcDbEntity
  8
PCB-TOP
100
AcDbCircle
 10
93.98
 20
40.005
 30
0.0
 40
1.25
  0
CIRCLE
  5
EBF
102
{ACAD_REACTORS
330
EC1
330
EC2
102
}
100
AcDbEntity
  8
PCB-TOP
100
AcDbCircle
 10
93.98
 20
40.005
 30
0.0
 40
0.15
  0
CIRCLE
  5
EC0
102
{ACAD_REACTORS
330
EC1
330
EC2
102
}
100
AcDbEntity
  8
PCB-TOP
100
AcDbCircle
 10
93.98
 20
40.005
 30
0.0
 40
0.15
  0
CIRCLE
  5
EC3
102
{ACAD_REACTORS
330
EC6
330
EC7
102
}
100
AcDbEntity
  8
PCB-TOP
100
AcDbCircle
 10
93.98
 20
34.925
 30
0.0
 40
1.25
  0
CIRCLE
  5
EC4
102
{ACAD_REACTORS
330
EC6
330
EC7
102
}
100
AcDbEntity
  8
PCB-TOP
100
AcDbCircle
 10
93.98
 20
34.925
 30
0.0
 40
0.15
  0
CIRCLE
  5
EC5
102
{ACAD_REACTORS
330
EC6
330
EC7
102
}
100
AcDbEntity
  8
PCB-TOP
100
AcDbCircle
 10
93.98
 20
34.925
 30
0.0
 40
0.15
  0
LWPOLYLINE
  5
EC8
100
AcDbEntity
  8
PCB-TOP
  6
CONTINUOUS
100
AcDbPolyline
 90
        4
 70
     1
 43
0.0
 10
68.9915
 20
52.6195
 42
-1.0
 10
66.8985
 20
52.6195
 10
66.8985
 20
54.2205
 42
-1.0
 10
68.9915
 20
54.2205
  0
LWPOLYLINE
  5
EC9
100
AcDbEntity
  8
PCB-TOP
  6
CONTINUOUS
100
AcDbPolyline
 90
        4
 70
     1
 43
0.0
 10
68.9915
 20
44.9195
 42
-1.0
 10
66.8985
 20
44.9195
 10
66.8985
 20
46.5205
 42
-1.0
 10
68.9915
 20
46.5205
  0
LWPOLYLINE
  5
ECA
100
AcDbEntity
  8
PCB-TOP
  6
CONTINUOUS
100
AcDbPolyline
 90
        4
 70
     1
 43
0.0
 10
74.0715
 20
52.6195
 42
-1.0
 10
71.9785
 20
52.6195
 10
71.9785
 20
54.2205
 42
-1.0
 10
74.0715
 20
54.2205
  0
LWPOLYLINE
  5
ECB
100
AcDbEntity
  8
PCB-TOP
  6
CONTINUOUS
100
AcDbPolyline
 90
        4
 70
     1
 43
0.0
 10
71.5315
 20
52.6195
 42
-1.0
 10
69.4385
 20
52.6195
 10
69.4385
 20
54.2205
 42
-1.0
 10
71.5315
 20
54.2205
  0
LWPOLYLINE
  5
ECC
100
AcDbEntity
  8
PCB-TOP
  6
CONTINUOUS
100
AcDbPolyline
 90
        4
 70
     1
 43
0.0
 10
76.6115
 20
52.6195
 42
-1.0
 10
74.5185
 20
52.6195
 10
74.5185
 20
54.2205
 42
-1.0
 10
76.6115
 20
54.2205
  0
LWPOLYLINE
  5
ECD
100
AcDbEntity
  8
PCB-TOP
  6
CONTINUOUS
100
AcDbPolyline
 90
        3
 70
     0
 43
0.0
 10
75.077344
 20
47.446434
 42
-0.564473
 10
76.6115
 20
46.5205
 10
76.6115
 20
45.835
  0
CIRCLE
  5
ECE
100
AcDbEntity
  8
PCB-TOP
100
AcDbCircle
 10
67.945
 20
53.42
 30
0.0
 40
0.15
  0
CIRCLE
  5
ECF
100
AcDbEntity
  8
PCB-TOP
100
AcDbCircle
 10
70.485
 20
53.42
 30
0.0
 40
0.15
  0
CIRCLE
  5
ED0
100
AcDbEntity
  8
PCB-TOP
100
AcDbCircle
 10
73.025
 20
53.42
 30
0.0
 40
0.15
  0
CIRCLE
  5
ED1
100
AcDbEntity
  8
PCB-TOP
100
AcDbCircle
 10
75.565
 20
53.42
 30
0.0
 40
0.15
  0
LWPOLYLINE
  5
ED2
100
AcDbEntity
  8
PCB-TOP
  6
CONTINUOUS
100
AcDbPolyline
 90
        4
 70
     0
 43
0.0
 10
71.999565
 20
44.710587
 42
-0.050287
 10
71.9785
 20
44.9195
 10
71.9785
 20
46.5205
 42
-0.502348
 10
73.325554
 20
47.522912
 42
-0.502348
  0
LWPOLYLINE
  5
ED3
100
AcDbEntity
  8
PCB-TOP
  6
CONTINUOUS
100
AcDbPolyline
 90
        4
 70
     0
 43
0.0
 10
71.235
 20
47.250337
 42
-0.195374
 10
71.5315
 20
46.5205
 10
71.5315
 20
44.9195
 42
-0.471161
 10
70.286898
 20
43.891921
 42
-0.471161
  0
CIRCLE
  5
ED4
100
AcDbEntity
  8
PCB-TOP
100
AcDbCircle
 10
67.945
 20
45.72
 30
0.0
 40
0.15
  0
CIRCLE
  5
ED5
100
AcDbEntity
  8
PCB-TOP
100
AcDbCircle
 10
70.485
 20
45.72
 30
0.0
 40
0.15
  0
CIRCLE
  5
ED6
100
AcDbEntity
  8
PCB-TOP
100
AcDbCircle
 10
73.025
 20
45.72
 30
0.0
 40
0.15
  0
CIRCLE
  5
ED7
100
AcDbEntity
  8
PCB-TOP
100
AcDbCircle
 10
75.565
 20
45.72
 30
0.0
 40
0.15
  0
LWPOLYLINE
  5
ED9
100
AcDbEntity
  8
PCB-TOP
  6
CONTINUOUS
100
AcDbPolyline
 90
        3
 70
     0
 43
0.0
 10
88.363128
 20
55.118793
 42
-0.582393
 10
89.9465
 20
54.2205
 10
89.9465
 20
52.924051
  0
LWPOLYLINE
  5
EDA
100
AcDbEntity
  8
PCB-TOP
  6
CONTINUOUS
100
AcDbPolyline
 90
        4
 70
     1
 43
0.0
 10
89.9465
 20
44.9195
 42
-1.0
 10
87.8535
 20
44.9195
 10
87.8535
 20
46.5205
 42
-1.0
 10
89.9465
 20
46.5205
  0
LWPOLYLINE
  5
EDB
100
AcDbEntity
  8
PCB-TOP
  6
CONTINUOUS
100
AcDbPolyline
 90
        4
 70
     1
 43
0.0
 10
95.0265
 20
52.6195
 42
-1.0
 10
92.9335
 20
52.6195
 10
92.9335
 20
54.2205
 42
-1.0
 10
95.0265
 20
54.2205
  0
LWPOLYLINE
  5
EDC
100
AcDbEntity
  8
PCB-TOP
  6
CONTINUOUS
100
AcDbPolyline
 90
        6
 70
     0
 43
0.0
 10
92.19
 20
54.950337
 42
-0.195374
 10
92.4865
 20
54.2205
 10
92.4865
 20
52.6195
 42
-1.0
 10
90.3935
 20
52.6195
 10
90.3935
 20
54.2205
 42
-0.195374
 10
90.69
 20
54.950337
 42
-0.195374
  0
LWPOLYLINE
  5
EDD
100
AcDbEntity
  8
PCB-TOP
  6
CONTINUOUS
100
AcDbPolyline
 90
        4
 70
     1
 43
0.0
 10
97.5665
 20
52.6195
 42
-1.0
 10
95.4735
 20
52.6195
 10
95.4735
 20
54.2205
 42
-1.0
 10
97.5665
 20
54.2205
  0
LWPOLYLINE
  5
EDE
100
AcDbEntity
  8
PCB-TOP
  6
CONTINUOUS
100
AcDbPolyline
 90
        6
 70
     0
 43
0.0
 10
97.27
 20
47.250337
 42
-0.195374
 10
97.5665
 20
46.5205
 10
97.5665
 20
44.9195
 42
-1.0
 10
95.4735
 20
44.9195
 10
95.4735
 20
46.5205
 42
-0.195374
 10
95.77
 20
47.250337
 42
-0.195374
  0
CIRCLE
  5
EDF
100
AcDbEntity
  8
PCB-TOP
100
AcDbCircle
 10
88.9
 20
53.42
 30
0.0
 40
0.15
  0
CIRCLE
  5
EE0
100
AcDbEntity
  8
PCB-TOP
100
AcDbCircle
 10
91.44
 20
53.42
 30
0.0
 40
0.15
  0
CIRCLE
  5
EE1
100
AcDbEntity
  8
PCB-TOP
100
AcDbCircle
 10
93.98
 20
53.42
 30
0.0
 40
0.15
  0
CIRCLE
  5
EE2
100
AcDbEntity
  8
PCB-TOP
100
AcDbCircle
 10
96.52
 20
53.42
 30
0.0
 40
0.15
  0
LWPOLYLINE
  5
EE3
100
AcDbEntity
  8
PCB-TOP
  6
CONTINUOUS
100
AcDbPolyline
 90
        4
 70
     1
 43
0.0
 10
95.0265
 20
44.9195
 42
-1.0
 10
92.9335
 20
44.9195
 10
92.9335
 20
46.5205
 42
-1.0
 10
95.0265
 20
46.5205
  0
CIRCLE
  5
EE5
100
AcDbEntity
  8
PCB-TOP
100
AcDbCircle
 10
88.9
 20
45.72
 30
0.0
 40
0.15
  0
CIRCLE
  5
EE7
100
AcDbEntity
  8
PCB-TOP
100
AcDbCircle
 10
93.98
 20
45.72
 30
0.0
 40
0.15
  0
CIRCLE
  5
EE8
100
AcDbEntity
  8
PCB-TOP
100
AcDbCircle
 10
96.52
 20
45.72
 30
0.0
 40
0.15
  0
CIRCLE
  5
EEA
102
{ACAD_REACTORS
330
F26
330
F27
102
}
100
AcDbEntity
  8
PCB-TOP
100
AcDbCircle
 10
76.2
 20
66.04
 30
0.0
 40
1.25
  0
CIRCLE
  5
EEB
102
{ACAD_REACTORS
330
F26
330
F27
102
}
100
AcDbEntity
  8
PCB-TOP
100
AcDbCircle
 10
76.2
 20
66.04
 30
0.0
 40
0.15
  0
CIRCLE
  5
EEC
102
{ACAD_REACTORS
330
F26
330
F27
102
}
100
AcDbEntity
  8
PCB-TOP
100
AcDbCircle
 10
76.2
 20
66.04
 30
0.0
 40
0.15
  0
ARC
  5
EED
102
{ACAD_REACTORS
330
F1C
330
F1D
102
}
100
AcDbEntity
  8
PCB-TOP
100
AcDbCircle
 10
76.2
 20
60.96
 30
0.0
 40
1.25
100
AcDbArc
 50
153.434949
 51
79.695154
  0
CIRCLE
  5
EEE
102
{ACAD_REACTORS
330
F1C
330
F1D
102
}
100
AcDbEntity
  8
PCB-TOP
100
AcDbCircle
 10
76.2
 20
60.96
 30
0.0
 40
0.15
  0
CIRCLE
  5
EEF
102
{ACAD_REACTORS
330
F1C
330
F1D
102
}
100
AcDbEntity
  8
PCB-TOP
100
AcDbCircle
 10
76.2
 20
60.96
 30
0.0
 40
0.15
  0
ARC
  5
EF0
102
{ACAD_REACTORS
330
F1A
330
F1B
102
}
100
AcDbEntity
  8
PCB-TOP
100
AcDbCircle
 10
73.66
 20
60.96
 30
0.0
 40
1.25
100
AcDbArc
 50
328.671307
 51
254.931512
  0
CIRCLE
  5
EF1
102
{ACAD_REACTORS
330
F1A
330
F1B
102
}
100
AcDbEntity
  8
PCB-TOP
100
AcDbCircle
 10
73.66
 20
60.96
 30
0.0
 40
0.15
  0
CIRCLE
  5
EF2
102
{ACAD_REACTORS
330
F1A
330
F1B
102
}
100
AcDbEntity
  8
PCB-TOP
100
AcDbCircle
 10
73.66
 20
60.96
 30
0.0
 40
0.15
  0
CIRCLE
  5
EF3
102
{ACAD_REACTORS
330
F18
330
F19
102
}
100
AcDbEntity
  8
PCB-TOP
100
AcDbCircle
 10
71.12
 20
60.96
 30
0.0
 40
1.25
  0
CIRCLE
  5
EF4
102
{ACAD_REACTORS
330
F18
330
F19
102
}
100
AcDbEntity
  8
PCB-TOP
100
AcDbCircle
 10
71.12
 20
60.96
 30
0.0
 40
0.15
  0
CIRCLE
  5
EF5
102
{ACAD_REACTORS
330
F18
330
F19
102
}
100
AcDbEntity
  8
PCB-TOP
100
AcDbCircle
 10
71.12
 20
60.96
 30
0.0
 40
0.15
  0
CIRCLE
  5
EF6
102
{ACAD_REACTORS
330
F16
330
F17
102
}
100
AcDbEntity
  8
PCB-TOP
100
AcDbCircle
 10
68.58
 20
60.96
 30
0.0
 40
1.25
  0
CIRCLE
  5
EF7
102
{ACAD_REACTORS
330
F16
330
F17
102
}
100
AcDbEntity
  8
PCB-TOP
100
AcDbCircle
 10
68.58
 20
60.96
 30
0.0
 40
0.15
  0
CIRCLE
  5
EF8
102
{ACAD_REACTORS
330
F16
330
F17
102
}
100
AcDbEntity
  8
PCB-TOP
100
AcDbCircle
 10
68.58
 20
60.96
 30
0.0
 40
0.15
  0
ARC
  5
EF9
102
{ACAD_REACTORS
330
F14
330
F15
102
}
100
AcDbEntity
  8
PCB-TOP
100
AcDbCircle
 10
66.04
 20
60.96
 30
0.0
 40
1.25
100
AcDbArc
 50
306.869898
 51
233.130102
  0
CIRCLE
  5
EFA
102
{ACAD_REACTORS
330
F14
330
F15
102
}
100
AcDbEntity
  8
PCB-TOP
100
AcDbCircle
 10
66.04
 20
60.96
 30
0.0
 40
0.15
  0
CIRCLE
  5
EFB
102
{ACAD_REACTORS
330
F14
330
F15
102
}
100
AcDbEntity
  8
PCB-TOP
100
AcDbCircle
 10
66.04
 20
60.96
 30
0.0
 40
0.15
  0
ARC
  5
EFC
102
{ACAD_REACTORS
330
F2A
330
F2B
102
}
100
AcDbEntity
  8
PCB-TOP
100
AcDbCircle
 10
71.12
 20
66.04
 30
0.0
 40
1.25
100
AcDbArc
 50
306.869898
 51
233.130102
  0
CIRCLE
  5
EFD
102
{ACAD_REACTORS
330
F2A
330
F2B
102
}
100
AcDbEntity
  8
PCB-TOP
100
AcDbCircle
 10
71.12
 20
66.04
 30
0.0
 40
0.15
  0
CIRCLE
  5
EFE
102
{ACAD_REACTORS
330
F2A
330
F2B
102
}
100
AcDbEntity
  8
PCB-TOP
100
AcDbCircle
 10
71.12
 20
66.04
 30
0.0
 40
0.15
  0
CIRCLE
  5
EFF
102
{ACAD_REACTORS
330
F2E
330
F2F
102
}
100
AcDbEntity
  8
PCB-TOP
100
AcDbCircle
 10
66.04
 20
66.04
 30
0.0
 40
1.25
  0
CIRCLE
  5
F00
102
{ACAD_REACTORS
330
F2E
330
F2F
102
}
100
AcDbEntity
  8
PCB-TOP
100
AcDbCircle
 10
66.04
 20
66.04
 30
0.0
 40
0.15
  0
CIRCLE
  5
F01
102
{ACAD_REACTORS
330
F2E
330
F2F
102
}
100
AcDbEntity
  8
PCB-TOP
100
AcDbCircle
 10
66.04
 20
66.04
 30
0.0
 40
0.15
  0
ARC
  5
F02
102
{ACAD_REACTORS
330
F2C
330
F2D
102
}
100
AcDbEntity
  8
PCB-TOP
100
AcDbCircle
 10
68.58
 20
66.04
 30
0.0
 40
1.25
100
AcDbArc
 50
105.068488
 51
31.328693
  0
CIRCLE
  5
F03
102
{ACAD_REACTORS
330
F2C
330
F2D
102
}
100
AcDbEntity
  8
PCB-TOP
100
AcDbCircle
 10
68.58
 20
66.04
 30
0.0
 40
0.15
  0
CIRCLE
  5
F04
102
{ACAD_REACTORS
330
F2C
330
F2D
102
}
100
AcDbEntity
  8
PCB-TOP
100
AcDbCircle
 10
68.58
 20
66.04
 30
0.0
 40
0.15
  0
ARC
  5
F05
102
{ACAD_REACTORS
330
F28
330
F29
102
}
100
AcDbEntity
  8
PCB-TOP
100
AcDbCircle
 10
73.66
 20
66.04
 30
0.0
 40
1.25
100
AcDbArc
 50
333.434949
 51
259.695154
  0
CIRCLE
  5
F06
102
{ACAD_REACTORS
330
F28
330
F29
102
}
100
AcDbEntity
  8
PCB-TOP
100
AcDbCircle
 10
73.66
 20
66.04
 30
0.0
 40
0.15
  0
CIRCLE
  5
F07
102
{ACAD_REACTORS
330
F28
330
F29
102
}
100
AcDbEntity
  8
PCB-TOP
100
AcDbCircle
 10
73.66
 20
66.04
 30
0.0
 40
0.15
  0
CIRCLE
  5
F30
102
{ACAD_REACTORS
330
F36
330
F37
102
}
100
AcDbEntity
  8
PCB-TOP
100
AcDbCircle
 10
80.645
 20
48.26
 30
0.0
 40
1.25
  0
CIRCLE
  5
F31
102
{ACAD_REACTORS
330
F36
330
F37
102
}
100
AcDbEntity
  8
PCB-TOP
100
AcDbCircle
 10
80.645
 20
48.26
 30
0.0
 40
0.15
  0
CIRCLE
  5
F32
102
{ACAD_REACTORS
330
F36
330
F37
102
}
100
AcDbEntity
  8
PCB-TOP
100
AcDbCircle
 10
80.645
 20
48.26
 30
0.0
 40
0.15
  0
CIRCLE
  5
F33
102
{ACAD_REACTORS
330
F38
330
F39
102
}
100
AcDbEntity
  8
PCB-TOP
100
AcDbCircle
 10
80.645
 20
50.8
 30
0.0
 40
1.25
  0
CIRCLE
  5
F34
102
{ACAD_REACTORS
330
F38
330
F39
102
}
100
AcDbEntity
  8
PCB-TOP
100
AcDbCircle
 10
80.645
 20
50.8
 30
0.0
 40
0.15
  0
CIRCLE
  5
F35
102
{ACAD_REACTORS
330
F38
330
F39
102
}
100
AcDbEntity
  8
PCB-TOP
100
AcDbCircle
 10
80.645
 20
50.8
 30
0.0
 40
0.15
  0
CIRCLE
  5
F3A
102
{ACAD_REACTORS
330
F40
330
F41
102
}
100
AcDbEntity
  8
PCB-TOP
100
AcDbCircle
 10
84.455
 20
48.26
 30
0.0
 40
1.25
  0
CIRCLE
  5
F3B
102
{ACAD_REACTORS
330
F40
330
F41
102
}
100
AcDbEntity
  8
PCB-TOP
100
AcDbCircle
 10
84.455
 20
48.26
 30
0.0
 40
0.15
  0
CIRCLE
  5
F3C
102
{ACAD_REACTORS
330
F40
330
F41
102
}
100
AcDbEntity
  8
PCB-TOP
100
AcDbCircle
 10
84.455
 20
48.26
 30
0.0
 40
0.15
  0
ARC
  5
F3D
102
{ACAD_REACTORS
330
F42
330
F43
102
}
100
AcDbEntity
  8
PCB-TOP
100
AcDbCircle
 10
84.455
 20
50.8
 30
0.0
 40
1.25
100
AcDbArc
 50
153.434949
 51
79.695154
  0
CIRCLE
  5
F3E
102
{ACAD_REACTORS
330
F42
330
F43
102
}
100
AcDbEntity
  8
PCB-TOP
100
AcDbCircle
 10
84.455
 20
50.8
 30
0.0
 40
0.15
  0
CIRCLE
  5
F3F
102
{ACAD_REACTORS
330
F42
330
F43
102
}
100
AcDbEntity
  8
PCB-TOP
100
AcDbCircle
 10
84.455
 20
50.8
 30
0.0
 40
0.15
  0
CIRCLE
  5
F44
102
{ACAD_REACTORS
330
F4C
330
F4D
102
}
100
AcDbEntity
  8
PCB-TOP
100
AcDbCircle
 10
93.98
 20
60.96
 30
0.0
 40
1.25
  0
CIRCLE
  5
F45
102
{ACAD_REACTORS
330
F4C
330
F4D
102
}
100
AcDbEntity
  8
PCB-TOP
100
AcDbCircle
 10
93.98
 20
60.96
 30
0.0
 40
0.15
  0
CIRCLE
  5
F46
102
{ACAD_REACTORS
330
F4C
330
F4D
102
}
100
AcDbEntity
  8
PCB-TOP
100
AcDbCircle
 10
93.98
 20
60.96
 30
0.0
 40
0.15
  0
CIRCLE
  5
F47
102
{ACAD_REACTORS
330
F4A
330
F4B
102
}
100
AcDbEntity
  8
PCB-TOP
100
AcDbCircle
 10
93.98
 20
66.04
 30
0.0
 40
1.25
  0
CIRCLE
  5
F48
102
{ACAD_REACTORS
330
F4A
330
F4B
102
}
100
AcDbEntity
  8
PCB-TOP
100
AcDbCircle
 10
93.98
 20
66.04
 30
0.0
 40
0.15
  0
CIRCLE
  5
F49
102
{ACAD_REACTORS
330
F4A
330
F4B
102
}
100
AcDbEntity
  8
PCB-TOP
100
AcDbCircle
 10
93.98
 20
66.04
 30
0.0
 40
0.15
  0
CIRCLE
  5
F4E
102
{ACAD_REACTORS
330
F54
330
F55
102
}
100
AcDbEntity
  8
PCB-TOP
100
AcDbCircle
 10
86.36
 20
60.325
 30
0.0
 40
1.25
  0
CIRCLE
  5
F4F
102
{ACAD_REACTORS
330
F54
330
F55
102
}
100
AcDbEntity
  8
PCB-TOP
100
AcDbCircle
 10
86.36
 20
60.325
 30
0.0
 40
0.15
  0
CIRCLE
  5
F50
102
{ACAD_REACTORS
330
F54
330
F55
102
}
100
AcDbEntity
  8
PCB-TOP
100
AcDbCircle
 10
86.36
 20
60.325
 30
0.0
 40
0.15
  0
CIRCLE
  5
F51
102
{ACAD_REACTORS
330
F56
330
F57
102
}
100
AcDbEntity
  8
PCB-TOP
100
AcDbCircle
 10
83.82
 20
60.325
 30
0.0
 40
1.25
  0
CIRCLE
  5
F52
102
{ACAD_REACTORS
330
F56
330
F57
102
}
100
AcDbEntity
  8
PCB-TOP
100
AcDbCircle
 10
83.82
 20
60.325
 30
0.0
 40
0.15
  0
CIRCLE
  5
F53
102
{ACAD_REACTORS
330
F56
330
F57
102
}
100
AcDbEntity
  8
PCB-TOP
100
AcDbCircle
 10
83.82
 20
60.325
 30
0.0
 40
0.15
  0
ARC
  5
F58
102
{ACAD_REACTORS
330
F5E
330
F5F
102
}
100
AcDbEntity
  8
PCB-TOP
100
AcDbCircle
 10
102.87
 20
45.72
 30
0.0
 40
1.25
100
AcDbArc
 50
168.055823
 51
94.316028
  0
CIRCLE
  5
F59
102
{ACAD_REACTORS
330
F5E
330
F5F
102
}
100
AcDbEntity
  8
PCB-TOP
100
AcDbCircle
 10
102.87
 20
45.72
 30
0.0
 40
0.15
  0
CIRCLE
  5
F5A
102
{ACAD_REACTORS
330
F5E
330
F5F
102
}
100
AcDbEntity
  8
PCB-TOP
100
AcDbCircle
 10
102.87
 20
45.72
 30
0.0
 40
0.15
  0
ARC
  5
F5B
102
{ACAD_REACTORS
330
F60
330
F61
102
}
100
AcDbEntity
  8
PCB-TOP
100
AcDbCircle
 10
102.87
 20
48.26
 30
0.0
 40
1.25
100
AcDbArc
 50
263.617693
 51
178.754158
  0
CIRCLE
  5
F5C
102
{ACAD_REACTORS
330
F60
330
F61
102
}
100
AcDbEntity
  8
PCB-TOP
100
AcDbCircle
 10
102.87
 20
48.26
 30
0.0
 40
0.15
  0
CIRCLE
  5
F5D
102
{ACAD_REACTORS
330
F60
330
F61
102
}
100
AcDbEntity
  8
PCB-TOP
100
AcDbCircle
 10
102.87
 20
48.26
 30
0.0
 40
0.15
  0
ARC
  5
F62
102
{ACAD_REACTORS
330
F68
330
F69
102
}
100
AcDbEntity
  8
PCB-TOP
100
AcDbCircle
 10
102.87
 20
50.8
 30
0.0
 40
1.25
100
AcDbArc
 50
171.869898
 51
98.130102
  0
CIRCLE
  5
F63
102
{ACAD_REACTORS
330
F68
330
F69
102
}
100
AcDbEntity
  8
PCB-TOP
100
AcDbCircle
 10
102.87
 20
50.8
 30
0.0
 40
0.15
  0
CIRCLE
  5
F64
102
{ACAD_REACTORS
330
F68
330
F69
102
}
100
AcDbEntity
  8
PCB-TOP
100
AcDbCircle
 10
102.87
 20
50.8
 30
0.0
 40
0.15
  0
ARC
  5
F65
102
{ACAD_REACTORS
330
F6A
330
F6B
102
}
100
AcDbEntity
  8
PCB-TOP
100
AcDbCircle
 10
102.87
 20
53.34
 30
0.0
 40
1.25
100
AcDbArc
 50
258.191977
 51
191.808023
  0
CIRCLE
  5
F66
102
{ACAD_REACTORS
330
F6A
330
F6B
102
}
100
AcDbEntity
  8
PCB-TOP
100
AcDbCircle
 10
102.87
 20
53.34
 30
0.0
 40
0.15
  0
CIRCLE
  5
F67
102
{ACAD_REACTORS
330
F6A
330
F6B
102
}
100
AcDbEntity
  8
PCB-TOP
100
AcDbCircle
 10
102.87
 20
53.34
 30
0.0
 40
0.15
  0
ARC
  5
F6C
102
{ACAD_REACTORS
330
F72
330
F73
102
}
100
AcDbEntity
  8
PCB-TOP
100
AcDbCircle
 10
63.5
 20
48.26
 30
0.0
 40
1.25
100
AcDbArc
 50
216.869898
 51
143.130102
  0
CIRCLE
  5
F6D
102
{ACAD_REACTORS
330
F72
330
F73
102
}
100
AcDbEntity
  8
PCB-TOP
100
AcDbCircle
 10
63.5
 20
48.26
 30
0.0
 40
0.15
  0
CIRCLE
  5
F6E
102
{ACAD_REACTORS
330
F72
330
F73
102
}
100
AcDbEntity
  8
PCB-TOP
100
AcDbCircle
 10
63.5
 20
48.26
 30
0.0
 40
0.15
  0
CIRCLE
  5
F6F
102
{ACAD_REACTORS
330
F74
330
F75
102
}
100
AcDbEntity
  8
PCB-TOP
100
AcDbCircle
 10
63.5
 20
50.8
 30
0.0
 40
1.25
  0
CIRCLE
  5
F70
102
{ACAD_REACTORS
330
F74
330
F75
102
}
100
AcDbEntity
  8
PCB-TOP
100
AcDbCircle
 10
63.5
 20
50.8
 30
0.0
 40
0.15
  0
CIRCLE
  5
F71
102
{ACAD_REACTORS
330
F74
330
F75
102
}
100
AcDbEntity
  8
PCB-TOP
100
AcDbCircle
 10
63.5
 20
50.8
 30
0.0
 40
0.15
  0
ARC
  5
10F8
102
{ACAD_REACTORS
330
11E1
330
11E2
102
}
100
AcDbEntity
  8
PCB-BOTT
100
AcDbCircle
 10
83.82
 20
34.925
 30
0.0
 40
1.25
100
AcDbArc
 50
216.869898
 51
143.130102
  0
CIRCLE
  5
10F9
102
{ACAD_REACTORS
330
11E1
330
11E2
102
}
100
AcDbEntity
  8
PCB-BOTT
100
AcDbCircle
 10
83.82
 20
34.925
 30
0.0
 40
0.15
  0
CIRCLE
  5
10FA
102
{ACAD_REACTORS
330
11E1
330
11E2
102
}
100
AcDbEntity
  8
PCB-BOTT
100
AcDbCircle
 10
83.82
 20
34.925
 30
0.0
 40
0.15
  0
ARC
  5
10FB
102
{ACAD_REACTORS
330
11C7
330
11C8
102
}
100
AcDbEntity
  8
PCB-BOTT
100
AcDbCircle
 10
83.82
 20
40.005
 30
0.0
 40
1.25
100
AcDbArc
 50
112.833654
 51
39.093859
  0
CIRCLE
  5
10FC
102
{ACAD_REACTORS
330
11C7
330
11C8
102
}
100
AcDbEntity
  8
PCB-BOTT
100
AcDbCircle
 10
83.82
 20
40.005
 30
0.0
 40
0.15
  0
CIRCLE
  5
10FD
102
{ACAD_REACTORS
330
11C7
330
11C8
102
}
100
AcDbEntity
  8
PCB-BOTT
100
AcDbCircle
 10
83.82
 20
40.005
 30
0.0
 40
0.15
  0
LWPOLYLINE
  5
1101
102
{ACAD_REACTORS
330
11AB
102
}
100
AcDbEntity
  8
PCB-BOTT
  6
CONTINUOUS
100
AcDbPolyline
 90
        5
 70
     0
 43
0.0
 10
67.600587
 20
55.208701
 42
-0.51622
 10
68.9915
 20
54.2205
 10
68.9915
 20
52.6195
 42
-1.0
 10
66.8985
 20
52.6195
 10
66.8985
 20
53.557668
  0
LWPOLYLINE
  5
1102
102
{ACAD_REACTORS
330
11AB
102
}
100
AcDbEntity
  8
PCB-BOTT
  6
CONTINUOUS
100
AcDbPolyline
 90
        6
 70
     0
 43
0.0
 10
67.329647
 20
44.073035
 42
-0.240005
 10
66.8985
 20
44.9195
 10
66.8985
 20
46.5205
 42
-1.0
 10
68.9915
 20
46.5205
 10
68.9915
 20
44.9195
 42
-0.149262
 10
68.813021
 20
44.334947
 42
-0.149262
  0
LWPOLYLINE
  5
1103
102
{ACAD_REACTORS
330
11AB
102
}
100
AcDbEntity
  8
PCB-BOTT
  6
CONTINUOUS
100
AcDbPolyline
 90
        5
 70
     0
 43
0.0
 10
71.9785
 20
53.053571
 10
71.9785
 20
54.2205
 42
-1.0
 10
74.0715
 20
54.2205
 10
74.0715
 20
52.6195
 42
-0.464784
 10
72.848443
 20
51.588001
 42
-0.464784
  0
LWPOLYLINE
  5
1104
102
{ACAD_REACTORS
330
11AB
102
}
100
AcDbEntity
  8
PCB-BOTT
  6
CONTINUOUS
100
AcDbPolyline
 90
        5
 70
     0
 43
0.0
 10
70.36356
 20
55.25993
 42
-0.448704
 10
71.5315
 20
54.2205
 10
71.5315
 20
52.6195
 42
-1.0
 10
69.4385
 20
52.6195
 10
69.4385
 20
53.755949
  0
LWPOLYLINE
  5
1105
102
{ACAD_REACTORS
330
11AB
102
}
100
AcDbEntity
  8
PCB-BOTT
  6
CONTINUOUS
100
AcDbPolyline
 90
        3
 70
     0
 43
0.0
 10
76.438946
 20
54.796157
 42
-0.146652
 10
76.6115
 20
54.2205
 10
76.6115
 20
53.655275
  0
LWPOLYLINE
  5
1106
102
{ACAD_REACTORS
330
11AB
102
}
100
AcDbEntity
  8
PCB-BOTT
  6
CONTINUOUS
100
AcDbPolyline
 90
        4
 70
     1
 43
0.0
 10
76.6115
 20
44.9195
 42
-1.0
 10
74.5185
 20
44.9195
 10
74.5185
 20
46.5205
 42
-1.0
 10
76.6115
 20
46.5205
  0
CIRCLE
  5
1107
102
{ACAD_REACTORS
330
11AB
102
}
100
AcDbEntity
  8
PCB-BOTT
100
AcDbCircle
 10
67.945
 20
53.42
 30
0.0
 40
0.15
  0
CIRCLE
  5
1108
102
{ACAD_REACTORS
330
11AB
102
}
100
AcDbEntity
  8
PCB-BOTT
100
AcDbCircle
 10
70.485
 20
53.42
 30
0.0
 40
0.15
  0
CIRCLE
  5
1109
102
{ACAD_REACTORS
330
11AB
102
}
100
AcDbEntity
  8
PCB-BOTT
100
AcDbCircle
 10
73.025
 20
53.42
 30
0.0
 40
0.15
  0
CIRCLE
  5
110A
102
{ACAD_REACTORS
330
11AB
102
}
100
AcDbEntity
  8
PCB-BOTT
100
AcDbCircle
 10
75.565
 20
53.42
 30
0.0
 40
0.15
  0
LWPOLYLINE
  5
110B
102
{ACAD_REACTORS
330
11AB
102
}
100
AcDbEntity
  8
PCB-BOTT
  6
CONTINUOUS
100
AcDbPolyline
 90
        4
 70
     1
 43
0.0
 10
74.0715
 20
44.9195
 42
-1.0
 10
71.9785
 20
44.9195
 10
71.9785
 20
46.5205
 42
-1.0
 10
74.0715
 20
46.5205
  0
LWPOLYLINE
  5
110C
102
{ACAD_REACTORS
330
11AB
102
}
100
AcDbEntity
  8
PCB-BOTT
  6
CONTINUOUS
100
AcDbPolyline
 90
        5
 70
     0
 43
0.0
 10
71.5315
 20
46.006429
 10
71.5315
 20
44.9195
 42
-1.0
 10
69.4385
 20
44.9195
 10
69.4385
 20
46.5205
 42
-0.477575
 10
70.70458
 20
47.543704
 42
-0.477575
  0
CIRCLE
  5
110D
102
{ACAD_REACTORS
330
11AB
102
}
100
AcDbEntity
  8
PCB-BOTT
100
AcDbCircle
 10
67.945
 20
45.72
 30
0.0
 40
0.15
  0
CIRCLE
  5
110E
102
{ACAD_REACTORS
330
11AB
102
}
100
AcDbEntity
  8
PCB-BOTT
100
AcDbCircle
 10
70.485
 20
45.72
 30
0.0
 40
0.15
  0
CIRCLE
  5
110F
102
{ACAD_REACTORS
330
11AB
102
}
100
AcDbEntity
  8
PCB-BOTT
100
AcDbCircle
 10
73.025
 20
45.72
 30
0.0
 40
0.15
  0
CIRCLE
  5
1110
102
{ACAD_REACTORS
330
11AB
102
}
100
AcDbEntity
  8
PCB-BOTT
100
AcDbCircle
 10
75.565
 20
45.72
 30
0.0
 40
0.15
  0
ARC
  5
1111
102
{ACAD_REACTORS
330
11D9
330
11DA
102
}
100
AcDbEntity
  8
PCB-BOTT
100
AcDbCircle
 10
71.12
 20
34.925
 30
0.0
 40
1.25
100
AcDbArc
 50
306.869898
 51
233.130102
  0
CIRCLE
  5
1112
102
{ACAD_REACTORS
330
11D9
330
11DA
102
}
100
AcDbEntity
  8
PCB-BOTT
100
AcDbCircle
 10
71.12
 20
34.925
 30
0.0
 40
0.15
  0
CIRCLE
  5
1113
102
{ACAD_REACTORS
330
11D9
330
11DA
102
}
100
AcDbEntity
  8
PCB-BOTT
100
AcDbCircle
 10
71.12
 20
34.925
 30
0.0
 40
0.15
  0
ARC
  5
1114
102
{ACAD_REACTORS
330
11D5
330
11D6
102
}
100
AcDbEntity
  8
PCB-BOTT
100
AcDbCircle
 10
66.04
 20
34.925
 30
0.0
 40
1.25
100
AcDbArc
 50
306.869898
 51
233.130102
  0
CIRCLE
  5
1115
102
{ACAD_REACTORS
330
11D5
330
11D6
102
}
100
AcDbEntity
  8
PCB-BOTT
100
AcDbCircle
 10
66.04
 20
34.925
 30
0.0
 40
0.15
  0
CIRCLE
  5
1116
102
{ACAD_REACTORS
330
11D5
330
11D6
102
}
100
AcDbEntity
  8
PCB-BOTT
100
AcDbCircle
 10
66.04
 20
34.925
 30
0.0
 40
0.15
  0
CIRCLE
  5
1117
102
{ACAD_REACTORS
330
11D7
330
11D8
102
}
100
AcDbEntity
  8
PCB-BOTT
100
AcDbCircle
 10
68.58
 20
34.925
 30
0.0
 40
1.25
  0
CIRCLE
  5
1118
102
{ACAD_REACTORS
330
11D7
330
11D8
102
}
100
AcDbEntity
  8
PCB-BOTT
100
AcDbCircle
 10
68.58
 20
34.925
 30
0.0
 40
0.15
  0
CIRCLE
  5
1119
102
{ACAD_REACTORS
330
11D7
330
11D8
102
}
100
AcDbEntity
  8
PCB-BOTT
100
AcDbCircle
 10
68.58
 20
34.925
 30
0.0
 40
0.15
  0
ARC
  5
111A
102
{ACAD_REACTORS
330
11DD
330
11DE
102
}
100
AcDbEntity
  8
PCB-BOTT
100
AcDbCircle
 10
76.2
 20
34.925
 30
0.0
 40
1.25
100
AcDbArc
 50
306.869898
 51
323.130102
  0
CIRCLE
  5
111B
102
{ACAD_REACTORS
330
11DD
330
11DE
102
}
100
AcDbEntity
  8
PCB-BOTT
100
AcDbCircle
 10
76.2
 20
34.925
 30
0.0
 40
0.15
  0
CIRCLE
  5
111C
102
{ACAD_REACTORS
330
11DD
330
11DE
102
}
100
AcDbEntity
  8
PCB-BOTT
100
AcDbCircle
 10
76.2
 20
34.925
 30
0.0
 40
0.15
  0
ARC
  5
111D
102
{ACAD_REACTORS
330
11DB
330
11DC
102
}
100
AcDbEntity
  8
PCB-BOTT
100
AcDbCircle
 10
73.66
 20
34.925
 30
0.0
 40
1.25
100
AcDbArc
 50
126.869898
 51
53.130102
  0
CIRCLE
  5
111E
102
{ACAD_REACTORS
330
11DB
330
11DC
102
}
100
AcDbEntity
  8
PCB-BOTT
100
AcDbCircle
 10
73.66
 20
34.925
 30
0.0
 40
0.15
  0
CIRCLE
  5
111F
102
{ACAD_REACTORS
330
11DB
330
11DC
102
}
100
AcDbEntity
  8
PCB-BOTT
100
AcDbCircle
 10
73.66
 20
34.925
 30
0.0
 40
0.15
  0
ARC
  5
1120
102
{ACAD_REACTORS
330
11DF
330
11E0
102
}
100
AcDbEntity
  8
PCB-BOTT
100
AcDbCircle
 10
78.74
 20
34.925
 30
0.0
 40
1.25
100
AcDbArc
 50
216.869898
 51
323.130102
  0
CIRCLE
  5
1121
102
{ACAD_REACTORS
330
11DF
330
11E0
102
}
100
AcDbEntity
  8
PCB-BOTT
100
AcDbCircle
 10
78.74
 20
34.925
 30
0.0
 40
0.15
  0
CIRCLE
  5
1122
102
{ACAD_REACTORS
330
11DF
330
11E0
102
}
100
AcDbEntity
  8
PCB-BOTT
100
AcDbCircle
 10
78.74
 20
34.925
 30
0.0
 40
0.15
  0
CIRCLE
  5
1123
102
{ACAD_REACTORS
330
11CF
330
11D0
102
}
100
AcDbEntity
  8
PCB-BOTT
100
AcDbCircle
 10
71.12
 20
40.005
 30
0.0
 40
1.25
  0
CIRCLE
  5
1124
102
{ACAD_REACTORS
330
11CF
330
11D0
102
}
100
AcDbEntity
  8
PCB-BOTT
100
AcDbCircle
 10
71.12
 20
40.005
 30
0.0
 40
0.15
  0
CIRCLE
  5
1125
102
{ACAD_REACTORS
330
11CF
330
11D0
102
}
100
AcDbEntity
  8
PCB-BOTT
100
AcDbCircle
 10
71.12
 20
40.005
 30
0.0
 40
0.15
  0
CIRCLE
  5
1126
102
{ACAD_REACTORS
330
11D3
330
11D4
102
}
100
AcDbEntity
  8
PCB-BOTT
100
AcDbCircle
 10
66.04
 20
40.005
 30
0.0
 40
1.25
  0
CIRCLE
  5
1127
102
{ACAD_REACTORS
330
11D3
330
11D4
102
}
100
AcDbEntity
  8
PCB-BOTT
100
AcDbCircle
 10
66.04
 20
40.005
 30
0.0
 40
0.15
  0
CIRCLE
  5
1128
102
{ACAD_REACTORS
330
11D3
330
11D4
102
}
100
AcDbEntity
  8
PCB-BOTT
100
AcDbCircle
 10
66.04
 20
40.005
 30
0.0
 40
0.15
  0
ARC
  5
1129
102
{ACAD_REACTORS
330
11D1
330
11D2
102
}
100
AcDbEntity
  8
PCB-BOTT
100
AcDbCircle
 10
68.58
 20
40.005
 30
0.0
 40
1.25
100
AcDbArc
 50
306.869898
 51
57.893744
  0
CIRCLE
  5
112A
102
{ACAD_REACTORS
330
11D1
330
11D2
102
}
100
AcDbEntity
  8
PCB-BOTT
100
AcDbCircle
 10
68.58
 20
40.005
 30
0.0
 40
0.15
  0
CIRCLE
  5
112B
102
{ACAD_REACTORS
330
11D1
330
11D2
102
}
100
AcDbEntity
  8
PCB-BOTT
100
AcDbCircle
 10
68.58
 20
40.005
 30
0.0
 40
0.15
  0
CIRCLE
  5
112C
102
{ACAD_REACTORS
330
11A9
330
11AA
102
}
100
AcDbEntity
  8
PCB-BOTT
100
AcDbCircle
 10
63.5
 20
48.26
 30
0.0
 40
1.25
  0
CIRCLE
  5
112D
102
{ACAD_REACTORS
330
11A9
330
11AA
102
}
100
AcDbEntity
  8
PCB-BOTT
100
AcDbCircle
 10
63.5
 20
48.26
 30
0.0
 40
0.15
  0
CIRCLE
  5
112E
102
{ACAD_REACTORS
330
11A9
330
11AA
102
}
100
AcDbEntity
  8
PCB-BOTT
100
AcDbCircle
 10
63.5
 20
48.26
 30
0.0
 40
0.15
  0
ARC
  5
112F
102
{ACAD_REACTORS
330
11A7
330
11A8
102
}
100
AcDbEntity
  8
PCB-BOTT
100
AcDbCircle
 10
63.5
 20
50.8
 30
0.0
 40
1.25
100
AcDbArc
 50
28.739795
 51
315.0
  0
CIRCLE
  5
1130
102
{ACAD_REACTORS
330
11A7
330
11A8
102
}
100
AcDbEntity
  8
PCB-BOTT
100
AcDbCircle
 10
63.5
 20
50.8
 30
0.0
 40
0.15
  0
CIRCLE
  5
1131
102
{ACAD_REACTORS
330
11A7
330
11A8
102
}
100
AcDbEntity
  8
PCB-BOTT
100
AcDbCircle
 10
63.5
 20
50.8
 30
0.0
 40
0.15
  0
ARC
  5
1132
102
{ACAD_REACTORS
330
11CB
330
11CC
102
}
100
AcDbEntity
  8
PCB-BOTT
100
AcDbCircle
 10
76.2
 20
40.005
 30
0.0
 40
1.25
100
AcDbArc
 50
306.869898
 51
233.130102
  0
CIRCLE
  5
1133
102
{ACAD_REACTORS
330
11CB
330
11CC
102
}
100
AcDbEntity
  8
PCB-BOTT
100
AcDbCircle
 10
76.2
 20
40.005
 30
0.0
 40
0.15
  0
CIRCLE
  5
1134
102
{ACAD_REACTORS
330
11CB
330
11CC
102
}
100
AcDbEntity
  8
PCB-BOTT
100
AcDbCircle
 10
76.2
 20
40.005
 30
0.0
 40
0.15
  0
CIRCLE
  5
1135
102
{ACAD_REACTORS
330
11CD
330
11CE
102
}
100
AcDbEntity
  8
PCB-BOTT
100
AcDbCircle
 10
73.66
 20
40.005
 30
0.0
 40
1.25
  0
CIRCLE
  5
1136
102
{ACAD_REACTORS
330
11CD
330
11CE
102
}
100
AcDbEntity
  8
PCB-BOTT
100
AcDbCircle
 10
73.66
 20
40.005
 30
0.0
 40
0.15
  0
CIRCLE
  5
1137
102
{ACAD_REACTORS
330
11CD
330
11CE
102
}
100
AcDbEntity
  8
PCB-BOTT
100
AcDbCircle
 10
73.66
 20
40.005
 30
0.0
 40
0.15
  0
CIRCLE
  5
1138
102
{ACAD_REACTORS
330
11C9
330
11CA
102
}
100
AcDbEntity
  8
PCB-BOTT
100
AcDbCircle
 10
78.74
 20
40.005
 30
0.0
 40
1.25
  0
CIRCLE
  5
1139
102
{ACAD_REACTORS
330
11C9
330
11CA
102
}
100
AcDbEntity
  8
PCB-BOTT
100
AcDbCircle
 10
78.74
 20
40.005
 30
0.0
 40
0.15
  0
CIRCLE
  5
113A
102
{ACAD_REACTORS
330
11C9
330
11CA
102
}
100
AcDbEntity
  8
PCB-BOTT
100
AcDbCircle
 10
78.74
 20
40.005
 30
0.0
 40
0.15
  0
ARC
  5
113B
102
{ACAD_REACTORS
330
11A1
330
11A2
102
}
100
AcDbEntity
  8
PCB-BOTT
100
AcDbCircle
 10
71.12
 20
60.96
 30
0.0
 40
1.25
100
AcDbArc
 50
36.869898
 51
323.130102
  0
CIRCLE
  5
113C
102
{ACAD_REACTORS
330
11A1
330
11A2
102
}
100
AcDbEntity
  8
PCB-BOTT
100
AcDbCircle
 10
71.12
 20
60.96
 30
0.0
 40
0.15
  0
CIRCLE
  5
113D
102
{ACAD_REACTORS
330
11A1
330
11A2
102
}
100
AcDbEntity
  8
PCB-BOTT
100
AcDbCircle
 10
71.12
 20
60.96
 30
0.0
 40
0.15
  0
ARC
  5
1141
102
{ACAD_REACTORS
330
11A5
330
11A6
102
}
100
AcDbEntity
  8
PCB-BOTT
100
AcDbCircle
 10
66.04
 20
60.96
 30
0.0
 40
1.25
100
AcDbArc
 50
202.481957
 51
157.518043
  0
CIRCLE
  5
1142
102
{ACAD_REACTORS
330
11A5
330
11A6
102
}
100
AcDbEntity
  8
PCB-BOTT
100
AcDbCircle
 10
66.04
 20
60.96
 30
0.0
 40
0.15
  0
CIRCLE
  5
1143
102
{ACAD_REACTORS
330
11A5
330
11A6
102
}
100
AcDbEntity
  8
PCB-BOTT
100
AcDbCircle
 10
66.04
 20
60.96
 30
0.0
 40
0.15
  0
ARC
  5
1144
102
{ACAD_REACTORS
330
11A3
330
11A4
102
}
100
AcDbEntity
  8
PCB-BOTT
100
AcDbCircle
 10
68.58
 20
60.96
 30
0.0
 40
1.25
100
AcDbArc
 50
306.869898
 51
26.565051
  0
CIRCLE
  5
1145
102
{ACAD_REACTORS
330
11A3
330
11A4
102
}
100
AcDbEntity
  8
PCB-BOTT
100
AcDbCircle
 10
68.58
 20
60.96
 30
0.0
 40
0.15
  0
CIRCLE
  5
1146
102
{ACAD_REACTORS
330
11A3
330
11A4
102
}
100
AcDbEntity
  8
PCB-BOTT
100
AcDbCircle
 10
68.58
 20
60.96
 30
0.0
 40
0.15
  0
ARC
  5
1147
102
{ACAD_REACTORS
330
1193
330
1194
102
}
100
AcDbEntity
  8
PCB-BOTT
100
AcDbCircle
 10
66.04
 20
66.04
 30
0.0
 40
1.25
100
AcDbArc
 50
36.869898
 51
157.518043
  0
CIRCLE
  5
1148
102
{ACAD_REACTORS
330
1193
330
1194
102
}
100
AcDbEntity
  8
PCB-BOTT
100
AcDbCircle
 10
66.04
 20
66.04
 30
0.0
 40
0.15
  0
CIRCLE
  5
1149
102
{ACAD_REACTORS
330
1193
330
1194
102
}
100
AcDbEntity
  8
PCB-BOTT
100
AcDbCircle
 10
66.04
 20
66.04
 30
0.0
 40
0.15
  0
ARC
  5
114A
102
{ACAD_REACTORS
330
1195
330
1196
102
}
100
AcDbEntity
  8
PCB-BOTT
100
AcDbCircle
 10
68.58
 20
66.04
 30
0.0
 40
1.25
100
AcDbArc
 50
216.869898
 51
53.130102
  0
CIRCLE
  5
114B
102
{ACAD_REACTORS
330
1195
330
1196
102
}
100
AcDbEntity
  8
PCB-BOTT
100
AcDbCircle
 10
68.58
 20
66.04
 30
0.0
 40
0.15
  0
CIRCLE
  5
114C
102
{ACAD_REACTORS
330
1195
330
1196
102
}
100
AcDbEntity
  8
PCB-BOTT
100
AcDbCircle
 10
68.58
 20
66.04
 30
0.0
 40
0.15
  0
ARC
  5
114D
102
{ACAD_REACTORS
330
119D
330
119E
102
}
100
AcDbEntity
  8
PCB-BOTT
100
AcDbCircle
 10
76.2
 20
60.96
 30
0.0
 40
1.25
100
AcDbArc
 50
302.106256
 51
228.366461
  0
CIRCLE
  5
114E
102
{ACAD_REACTORS
330
119D
330
119E
102
}
100
AcDbEntity
  8
PCB-BOTT
100
AcDbCircle
 10
76.2
 20
60.96
 30
0.0
 40
0.15
  0
CIRCLE
  5
114F
102
{ACAD_REACTORS
330
119D
330
119E
102
}
100
AcDbEntity
  8
PCB-BOTT
100
AcDbCircle
 10
76.2
 20
60.96
 30
0.0
 40
0.15
  0
ARC
  5
1150
102
{ACAD_REACTORS
330
119F
330
11A0
102
}
100
AcDbEntity
  8
PCB-BOTT
100
AcDbCircle
 10
73.66
 20
60.96
 30
0.0
 40
1.25
100
AcDbArc
 50
216.869898
 51
8.130102
  0
CIRCLE
  5
1151
102
{ACAD_REACTORS
330
119F
330
11A0
102
}
100
AcDbEntity
  8
PCB-BOTT
100
AcDbCircle
 10
73.66
 20
60.96
 30
0.0
 40
0.15
  0
CIRCLE
  5
1152
102
{ACAD_REACTORS
330
119F
330
11A0
102
}
100
AcDbEntity
  8
PCB-BOTT
100
AcDbCircle
 10
73.66
 20
60.96
 30
0.0
 40
0.15
  0
ARC
  5
1153
102
{ACAD_REACTORS
330
119B
330
119C
102
}
100
AcDbEntity
  8
PCB-BOTT
100
AcDbCircle
 10
76.2
 20
66.04
 30
0.0
 40
1.25
100
AcDbArc
 50
261.869898
 51
188.130102
  0
CIRCLE
  5
1154
102
{ACAD_REACTORS
330
119B
330
119C
102
}
100
AcDbEntity
  8
PCB-BOTT
100
AcDbCircle
 10
76.2
 20
66.04
 30
0.0
 40
0.15
  0
CIRCLE
  5
1155
102
{ACAD_REACTORS
330
119B
330
119C
102
}
100
AcDbEntity
  8
PCB-BOTT
100
AcDbCircle
 10
76.2
 20
66.04
 30
0.0
 40
0.15
  0
CIRCLE
  5
1156
100
AcDbEntity
  8
PCB-BOTT
100
AcDbCircle
 10
73.66
 20
66.04
 30
0.0
 40
1.25
  0
CIRCLE
  5
1157
100
AcDbEntity
  8
PCB-BOTT
100
AcDbCircle
 10
73.66
 20
66.04
 30
0.0
 40
0.15
  0
CIRCLE
  5
1158
100
AcDbEntity
  8
PCB-BOTT
100
AcDbCircle
 10
73.66
 20
66.04
 30
0.0
 40
0.15
  0
LWPOLYLINE
  5
1159
102
{ACAD_REACTORS
330
11BE
102
}
100
AcDbEntity
  8
PCB-BOTT
  6
CONTINUOUS
100
AcDbPolyline
 90
        4
 70
     1
 43
0.0
 10
89.9465
 20
52.6195
 42
-1.0
 10
87.8535
 20
52.6195
 10
87.8535
 20
54.2205
 42
-1.0
 10
89.9465
 20
54.2205
  0
LWPOLYLINE
  5
115A
102
{ACAD_REACTORS
330
11BE
102
}
100
AcDbEntity
  8
PCB-BOTT
  6
CONTINUOUS
100
AcDbPolyline
 90
        6
 70
     0
 43
0.0
 10
88.15
 20
44.189663
 42
-0.195374
 10
87.8535
 20
44.9195
 10
87.8535
 20
46.5205
 42
-1.0
 10
89.9465
 20
46.5205
 10
89.9465
 20
44.9195
 42
-0.195374
 10
89.65
 20
44.189663
 42
-0.195374
  0
LWPOLYLINE
  5
115B
102
{ACAD_REACTORS
330
11BE
102
}
100
AcDbEntity
  8
PCB-BOTT
  6
CONTINUOUS
100
AcDbPolyline
 90
        6
 70
     0
 43
0.0
 10
93.23
 20
51.889663
 42
-0.195374
 10
92.9335
 20
52.6195
 10
92.9335
 20
54.2205
 42
-1.0
 10
95.0265
 20
54.2205
 10
95.0265
 20
52.6195
 42
-0.195374
 10
94.73
 20
51.889663
 42
-0.195374
  0
LWPOLYLINE
  5
115C
102
{ACAD_REACTORS
330
11BE
102
}
100
AcDbEntity
  8
PCB-BOTT
  6
CONTINUOUS
100
AcDbPolyline
 90
        6
 70
     0
 43
0.0
 10
92.19
 20
54.950337
 42
-0.195374
 10
92.4865
 20
54.2205
 10
92.4865
 20
52.6195
 42
-1.0
 10
90.3935
 20
52.6195
 10
90.3935
 20
54.2205
 42
-0.195374
 10
90.69
 20
54.950337
 42
-0.195374
  0
LWPOLYLINE
  5
115D
102
{ACAD_REACTORS
330
11BE
102
}
100
AcDbEntity
  8
PCB-BOTT
  6
CONTINUOUS
100
AcDbPolyline
 90
        5
 70
     0
 43
0.0
 10
97.5665
 20
53.87789
 10
97.5665
 20
52.6195
 42
-1.0
 10
95.4735
 20
52.6195
 10
95.4735
 20
54.2205
 42
-0.416976
 10
96.529862
 20
55.266954
 42
-0.416976
  0
LWPOLYLINE
  5
115E
102
{ACAD_REACTORS
330
11BE
102
}
100
AcDbEntity
  8
PCB-BOTT
  6
CONTINUOUS
100
AcDbPolyline
 90
        4
 70
     1
 43
0.0
 10
97.5665
 20
44.9195
 42
-1.0
 10
95.4735
 20
44.9195
 10
95.4735
 20
46.5205
 42
-1.0
 10
97.5665
 20
46.5205
  0
CIRCLE
  5
115F
102
{ACAD_REACTORS
330
11BE
102
}
100
AcDbEntity
  8
PCB-BOTT
100
AcDbCircle
 10
88.9
 20
53.42
 30
0.0
 40
0.15
  0
CIRCLE
  5
1160
102
{ACAD_REACTORS
330
11BE
102
}
100
AcDbEntity
  8
PCB-BOTT
100
AcDbCircle
 10
91.44
 20
53.42
 30
0.0
 40
0.15
  0
CIRCLE
  5
1161
102
{ACAD_REACTORS
330
11BE
102
}
100
AcDbEntity
  8
PCB-BOTT
100
AcDbCircle
 10
93.98
 20
53.42
 30
0.0
 40
0.15
  0
CIRCLE
  5
1162
102
{ACAD_REACTORS
330
11BE
102
}
100
AcDbEntity
  8
PCB-BOTT
100
AcDbCircle
 10
96.52
 20
53.42
 30
0.0
 40
0.15
  0
LWPOLYLINE
  5
1163
102
{ACAD_REACTORS
330
11BE
102
}
100
AcDbEntity
  8
PCB-BOTT
  6
CONTINUOUS
100
AcDbPolyline
 90
        5
 70
     0
 43
0.0
 10
92.9335
 20
46.47
 10
92.9335
 20
46.5205
 42
-1.0
 10
95.0265
 20
46.5205
 10
95.0265
 20
44.9195
 42
-0.195374
 10
94.73
 20
44.189663
 42
-0.195374
  0
LWPOLYLINE
  5
1164
102
{ACAD_REACTORS
330
11BE
102
}
100
AcDbEntity
  8
PCB-BOTT
  6
CONTINUOUS
100
AcDbPolyline
 90
        6
 70
     0
 43
0.0
 10
92.4865
 20
44.97
 10
92.4865
 20
44.9195
 42
-1.0
 10
90.3935
 20
44.9195
 10
90.3935
 20
46.5205
 42
-1.0
 10
92.4865
 20
46.5205
 10
92.4865
 20
46.47
  0
CIRCLE
  5
1165
102
{ACAD_REACTORS
330
11BE
102
}
100
AcDbEntity
  8
PCB-BOTT
100
AcDbCircle
 10
88.9
 20
45.72
 30
0.0
 40
0.15
  0
CIRCLE
  5
1166
102
{ACAD_REACTORS
330
11BE
102
}
100
AcDbEntity
  8
PCB-BOTT
100
AcDbCircle
 10
91.44
 20
45.72
 30
0.0
 40
0.15
  0
CIRCLE
  5
1167
102
{ACAD_REACTORS
330
11BE
102
}
100
AcDbEntity
  8
PCB-BOTT
100
AcDbCircle
 10
93.98
 20
45.72
 30
0.0
 40
0.15
  0
CIRCLE
  5
1168
102
{ACAD_REACTORS
330
11BE
102
}
100
AcDbEntity
  8
PCB-BOTT
100
AcDbCircle
 10
96.52
 20
45.72
 30
0.0
 40
0.15
  0
ARC
  5
1169
102
{ACAD_REACTORS
330
11C3
330
11C4
102
}
100
AcDbEntity
  8
PCB-BOTT
100
AcDbCircle
 10
88.9
 20
36.83
 30
0.0
 40
1.25
100
AcDbArc
 50
16.313852
 51
302.574057
  0
CIRCLE
  5
116A
102
{ACAD_REACTORS
330
11C3
330
11C4
102
}
100
AcDbEntity
  8
PCB-BOTT
100
AcDbCircle
 10
88.9
 20
36.83
 30
0.0
 40
0.15
  0
CIRCLE
  5
116B
102
{ACAD_REACTORS
330
11C3
330
11C4
102
}
100
AcDbEntity
  8
PCB-BOTT
100
AcDbCircle
 10
88.9
 20
36.83
 30
0.0
 40
0.15
  0
ARC
  5
116C
102
{ACAD_REACTORS
330
11C1
330
11C2
102
}
100
AcDbEntity
  8
PCB-BOTT
100
AcDbCircle
 10
93.98
 20
34.925
 30
0.0
 40
1.25
100
AcDbArc
 50
196.313852
 51
23.772349
  0
CIRCLE
  5
116D
102
{ACAD_REACTORS
330
11C1
330
11C2
102
}
100
AcDbEntity
  8
PCB-BOTT
100
AcDbCircle
 10
93.98
 20
34.925
 30
0.0
 40
0.15
  0
CIRCLE
  5
116E
102
{ACAD_REACTORS
330
11C1
330
11C2
102
}
100
AcDbEntity
  8
PCB-BOTT
100
AcDbCircle
 10
93.98
 20
34.925
 30
0.0
 40
0.15
  0
ARC
  5
116F
102
{ACAD_REACTORS
330
11C5
330
11C6
102
}
100
AcDbEntity
  8
PCB-BOTT
100
AcDbCircle
 10
88.9
 20
39.37
 30
0.0
 40
1.25
100
AcDbArc
 50
126.869898
 51
53.130102
  0
CIRCLE
  5
1170
102
{ACAD_REACTORS
330
11C5
330
11C6
102
}
100
AcDbEntity
  8
PCB-BOTT
100
AcDbCircle
 10
88.9
 20
39.37
 30
0.0
 40
0.15
  0
CIRCLE
  5
1171
102
{ACAD_REACTORS
330
11C5
330
11C6
102
}
100
AcDbEntity
  8
PCB-BOTT
100
AcDbCircle
 10
88.9
 20
39.37
 30
0.0
 40
0.15
  0
CIRCLE
  5
1172
102
{ACAD_REACTORS
330
11E7
330
11E8
102
}
100
AcDbEntity
  8
PCB-BOTT
100
AcDbCircle
 10
84.455
 20
50.8
 30
0.0
 40
1.25
  0
CIRCLE
  5
1173
102
{ACAD_REACTORS
330
11E7
330
11E8
102
}
100
AcDbEntity
  8
PCB-BOTT
100
AcDbCircle
 10
84.455
 20
50.8
 30
0.0
 40
0.15
  0
CIRCLE
  5
1174
102
{ACAD_REACTORS
330
11E7
330
11E8
102
}
100
AcDbEntity
  8
PCB-BOTT
100
AcDbCircle
 10
84.455
 20
50.8
 30
0.0
 40
0.15
  0
ARC
  5
1175
102
{ACAD_REACTORS
330
11E5
330
11E6
102
}
100
AcDbEntity
  8
PCB-BOTT
100
AcDbCircle
 10
84.455
 20
48.26
 30
0.0
 40
1.25
100
AcDbArc
 50
52.815294
 51
233.130102
  0
CIRCLE
  5
1176
102
{ACAD_REACTORS
330
11E5
330
11E6
102
}
100
AcDbEntity
  8
PCB-BOTT
100
AcDbCircle
 10
84.455
 20
48.26
 30
0.0
 40
0.15
  0
CIRCLE
  5
1177
102
{ACAD_REACTORS
330
11E5
330
11E6
102
}
100
AcDbEntity
  8
PCB-BOTT
100
AcDbCircle
 10
84.455
 20
48.26
 30
0.0
 40
0.15
  0
ARC
  5
1178
102
{ACAD_REACTORS
330
11BF
330
11C0
102
}
100
AcDbEntity
  8
PCB-BOTT
100
AcDbCircle
 10
93.98
 20
40.005
 30
0.0
 40
1.25
100
AcDbArc
 50
126.869898
 51
53.130102
  0
CIRCLE
  5
1179
102
{ACAD_REACTORS
330
11BF
330
11C0
102
}
100
AcDbEntity
  8
PCB-BOTT
100
AcDbCircle
 10
93.98
 20
40.005
 30
0.0
 40
0.15
  0
CIRCLE
  5
117A
102
{ACAD_REACTORS
330
11BF
330
11C0
102
}
100
AcDbEntity
  8
PCB-BOTT
100
AcDbCircle
 10
93.98
 20
40.005
 30
0.0
 40
0.15
  0
CIRCLE
  5
117B
102
{ACAD_REACTORS
330
11BC
330
11BD
102
}
100
AcDbEntity
  8
PCB-BOTT
100
AcDbCircle
 10
102.87
 20
45.72
 30
0.0
 40
1.25
  0
CIRCLE
  5
117C
102
{ACAD_REACTORS
330
11BC
330
11BD
102
}
100
AcDbEntity
  8
PCB-BOTT
100
AcDbCircle
 10
102.87
 20
45.72
 30
0.0
 40
0.15
  0
CIRCLE
  5
117D
102
{ACAD_REACTORS
330
11BC
330
11BD
102
}
100
AcDbEntity
  8
PCB-BOTT
100
AcDbCircle
 10
102.87
 20
45.72
 30
0.0
 40
0.15
  0
ARC
  5
117E
102
{ACAD_REACTORS
330
11BA
330
11BB
102
}
100
AcDbEntity
  8
PCB-BOTT
100
AcDbCircle
 10
102.87
 20
48.26
 30
0.0
 40
1.25
100
AcDbArc
 50
216.869898
 51
143.130102
  0
CIRCLE
  5
117F
102
{ACAD_REACTORS
330
11BA
330
11BB
102
}
100
AcDbEntity
  8
PCB-BOTT
100
AcDbCircle
 10
102.87
 20
48.26
 30
0.0
 40
0.15
  0
CIRCLE
  5
1180
102
{ACAD_REACTORS
330
11BA
330
11BB
102
}
100
AcDbEntity
  8
PCB-BOTT
100
AcDbCircle
 10
102.87
 20
48.26
 30
0.0
 40
0.15
  0
CIRCLE
  5
1181
102
{ACAD_REACTORS
330
11B8
330
11B9
102
}
100
AcDbEntity
  8
PCB-BOTT
100
AcDbCircle
 10
102.87
 20
50.8
 30
0.0
 40
1.25
  0
CIRCLE
  5
1182
102
{ACAD_REACTORS
330
11B8
330
11B9
102
}
100
AcDbEntity
  8
PCB-BOTT
100
AcDbCircle
 10
102.87
 20
50.8
 30
0.0
 40
0.15
  0
CIRCLE
  5
1183
102
{ACAD_REACTORS
330
11B8
330
11B9
102
}
100
AcDbEntity
  8
PCB-BOTT
100
AcDbCircle
 10
102.87
 20
50.8
 30
0.0
 40
0.15
  0
ARC
  5
1184
102
{ACAD_REACTORS
330
11B6
330
11B7
102
}
100
AcDbEntity
  8
PCB-BOTT
100
AcDbCircle
 10
102.87
 20
53.34
 30
0.0
 40
1.25
100
AcDbArc
 50
216.869898
 51
143.130102
  0
CIRCLE
  5
1185
102
{ACAD_REACTORS
330
11B6
330
11B7
102
}
100
AcDbEntity
  8
PCB-BOTT
100
AcDbCircle
 10
102.87
 20
53.34
 30
0.0
 40
0.15
  0
CIRCLE
  5
1186
102
{ACAD_REACTORS
330
11B6
330
11B7
102
}
100
AcDbEntity
  8
PCB-BOTT
100
AcDbCircle
 10
102.87
 20
53.34
 30
0.0
 40
0.15
  0
ARC
  5
1187
102
{ACAD_REACTORS
330
11B0
330
11B1
102
}
100
AcDbEntity
  8
PCB-BOTT
100
AcDbCircle
 10
86.36
 20
60.325
 30
0.0
 40
1.25
100
AcDbArc
 50
73.739795
 51
360.0
  0
CIRCLE
  5
1188
102
{ACAD_REACTORS
330
11B0
330
11B1
102
}
100
AcDbEntity
  8
PCB-BOTT
100
AcDbCircle
 10
86.36
 20
60.325
 30
0.0
 40
0.15
  0
CIRCLE
  5
1189
102
{ACAD_REACTORS
330
11B0
330
11B1
102
}
100
AcDbEntity
  8
PCB-BOTT
100
AcDbCircle
 10
86.36
 20
60.325
 30
0.0
 40
0.15
  0
ARC
  5
118A
102
{ACAD_REACTORS
330
11AE
330
11AF
102
}
100
AcDbEntity
  8
PCB-BOTT
100
AcDbCircle
 10
83.82
 20
60.325
 30
0.0
 40
1.25
100
AcDbArc
 50
158.4774
 51
84.737605
  0
CIRCLE
  5
118B
102
{ACAD_REACTORS
330
11AE
330
11AF
102
}
100
AcDbEntity
  8
PCB-BOTT
100
AcDbCircle
 10
83.82
 20
60.325
 30
0.0
 40
0.15
  0
CIRCLE
  5
118C
102
{ACAD_REACTORS
330
11AE
330
11AF
102
}
100
AcDbEntity
  8
PCB-BOTT
100
AcDbCircle
 10
83.82
 20
60.325
 30
0.0
 40
0.15
  0
ARC
  5
118D
102
{ACAD_REACTORS
330
11B4
330
11B5
102
}
100
AcDbEntity
  8
PCB-BOTT
100
AcDbCircle
 10
93.98
 20
60.96
 30
0.0
 40
1.25
100
AcDbArc
 50
268.210089
 51
194.470294
  0
CIRCLE
  5
118E
102
{ACAD_REACTORS
330
11B4
330
11B5
102
}
100
AcDbEntity
  8
PCB-BOTT
100
AcDbCircle
 10
93.98
 20
60.96
 30
0.0
 40
0.15
  0
CIRCLE
  5
118F
102
{ACAD_REACTORS
330
11B4
330
11B5
102
}
100
AcDbEntity
  8
PCB-BOTT
100
AcDbCircle
 10
93.98
 20
60.96
 30
0.0
 40
0.15
  0
ARC
  5
1190
102
{ACAD_REACTORS
330
11B2
330
11B3
102
}
100
AcDbEntity
  8
PCB-BOTT
100
AcDbCircle
 10
93.98
 20
66.04
 30
0.0
 40
1.25
100
AcDbArc
 50
253.739795
 51
180.0
  0
CIRCLE
  5
1191
102
{ACAD_REACTORS
330
11B2
330
11B3
102
}
100
AcDbEntity
  8
PCB-BOTT
100
AcDbCircle
 10
93.98
 20
66.04
 30
0.0
 40
0.15
  0
CIRCLE
  5
1192
102
{ACAD_REACTORS
330
11B2
330
11B3
102
}
100
AcDbEntity
  8
PCB-BOTT
100
AcDbCircle
 10
93.98
 20
66.04
 30
0.0
 40
0.15
  0
LINE
  5
126F
100
AcDbEntity
  8
PCB-BOTT
100
AcDbLine
 10
79.375
 20
71.235
 30
0.0
 11
79.375
 21
71.235
 31
0.0
  0
LINE
  5
127F
100
AcDbEntity
  8
PCB-BOTT
100
AcDbLine
 10
80.645
 20
71.235
 30
0.0
 11
80.645
 21
71.235
 31
0.0
  0
ARC
  5
12A8
102
{ACAD_REACTORS
330
12AE
330
12AF
102
}
100
AcDbEntity
  8
PCB-BOTT
100
AcDbCircle
 10
80.645
 20
48.26
 30
0.0
 40
1.25
100
AcDbArc
 50
202.833654
 51
129.093859
  0
CIRCLE
  5
12A9
102
{ACAD_REACTORS
330
12AE
330
12AF
102
}
100
AcDbEntity
  8
PCB-BOTT
100
AcDbCircle
 10
80.645
 20
48.26
 30
0.0
 40
0.15
  0
CIRCLE
  5
12AA
102
{ACAD_REACTORS
330
12AE
330
12AF
102
}
100
AcDbEntity
  8
PCB-BOTT
100
AcDbCircle
 10
80.645
 20
48.26
 30
0.0
 40
0.15
  0
ARC
  5
12AB
102
{ACAD_REACTORS
330
12B0
330
12B1
102
}
100
AcDbEntity
  8
PCB-BOTT
100
AcDbCircle
 10
80.645
 20
50.8
 30
0.0
 40
1.25
100
AcDbArc
 50
190.304846
 51
116.565051
  0
CIRCLE
  5
12AC
102
{ACAD_REACTORS
330
12B0
330
12B1
102
}
100
AcDbEntity
  8
PCB-BOTT
100
AcDbCircle
 10
80.645
 20
50.8
 30
0.0
 40
0.15
  0
CIRCLE
  5
12AD
102
{ACAD_REACTORS
330
12B0
330
12B1
102
}
100
AcDbEntity
  8
PCB-BOTT
100
AcDbCircle
 10
80.645
 20
50.8
 30
0.0
 40
0.15
  0
LINE
  5
12B2
100
AcDbEntity
  8
PCB-BOTT
100
AcDbLine
 10
66.79
 20
33.925
 30
0.0
 11
66.79
 21
33.135
 31
0.0
  0
LINE
  5
12B3
100
AcDbEntity
  8
PCB-BOTT
100
AcDbLine
 10
65.29
 20
33.925
 30
0.0
 11
65.29
 21
31.635
 31
0.0
  0
LINE
  5
12B4
100
AcDbEntity
  8
PCB-BOTT
100
AcDbLine
 10
66.79
 20
33.135
 30
0.0
 11
70.37
 21
33.135
 31
0.0
  0
LINE
  5
12B5
100
AcDbEntity
  8
PCB-BOTT
100
AcDbLine
 10
65.29
 20
31.635
 30
0.0
 11
76.95
 21
31.635
 31
0.0
  0
LINE
  5
12B6
100
AcDbEntity
  8
PCB-BOTT
100
AcDbLine
 10
75.45
 20
33.135
 30
0.0
 11
75.45
 21
33.925
 31
0.0
  0
LINE
  5
12B7
100
AcDbEntity
  8
PCB-BOTT
100
AcDbLine
 10
76.95
 20
31.635
 30
0.0
 11
76.95
 21
33.925
 31
0.0
  0
LINE
  5
12B8
100
AcDbEntity
  8
PCB-BOTT
100
AcDbLine
 10
77.2
 20
35.675
 30
0.0
 11
77.74
 21
35.675
 31
0.0
  0
LINE
  5
12B9
100
AcDbEntity
  8
PCB-BOTT
100
AcDbLine
 10
77.2
 20
34.175
 30
0.0
 11
77.74
 21
34.175
 31
0.0
  0
LINE
  5
12BA
100
AcDbEntity
  8
PCB-BOTT
100
AcDbLine
 10
71.87
 20
33.925
 30
0.0
 11
71.87
 21
33.135
 31
0.0
  0
LINE
  5
12BB
100
AcDbEntity
  8
PCB-BOTT
100
AcDbLine
 10
70.37
 20
33.925
 30
0.0
 11
70.37
 21
33.135
 31
0.0
  0
LINE
  5
12C0
100
AcDbEntity
  8
PCB-BOTT
100
AcDbLine
 10
69.33
 20
39.005
 30
0.0
 11
69.33
 21
38.215
 31
0.0
  0
LINE
  5
12C1
100
AcDbEntity
  8
PCB-BOTT
100
AcDbLine
 10
67.83
 20
39.005
 30
0.0
 11
67.83
 21
36.715
 31
0.0
  0
LINE
  5
12C2
100
AcDbEntity
  8
PCB-BOTT
100
AcDbLine
 10
69.33
 20
38.215
 30
0.0
 11
75.45
 21
38.215
 31
0.0
  0
LINE
  5
12C3
100
AcDbEntity
  8
PCB-BOTT
100
AcDbLine
 10
67.83
 20
36.715
 30
0.0
 11
72.91
 21
36.715
 31
0.0
  0
LINE
  5
12C4
100
AcDbEntity
  8
PCB-BOTT
100
AcDbLine
 10
75.45
 20
38.215
 30
0.0
 11
75.45
 21
39.005
 31
0.0
  0
LINE
  5
12C5
100
AcDbEntity
  8
PCB-BOTT
100
AcDbLine
 10
76.95
 20
36.715
 30
0.0
 11
76.95
 21
39.005
 31
0.0
  0
LINE
  5
12C6
100
AcDbEntity
  8
PCB-BOTT
100
AcDbLine
 10
72.91
 20
35.925
 30
0.0
 11
72.91
 21
36.715
 31
0.0
  0
LINE
  5
12C7
100
AcDbEntity
  8
PCB-BOTT
100
AcDbLine
 10
74.41
 20
35.925
 30
0.0
 11
74.41
 21
36.715
 31
0.0
  0
LINE
  5
12C9
100
AcDbEntity
  8
PCB-BOTT
100
AcDbLine
 10
69.244364
 20
41.06383
 30
0.0
 11
68.813021
 21
44.334947
 31
0.0
  0
LINE
  5
12D0
100
AcDbEntity
  8
PCB-BOTT
100
AcDbLine
 10
76.6115
 20
53.655275
 30
0.0
 11
80.085983
 21
51.918034
 31
0.0
  0
LINE
  5
12D2
100
AcDbEntity
  8
PCB-BOTT
100
AcDbLine
 10
74.95674
 20
55.072076
 30
0.0
 11
75.369545
 21
60.025738
 31
0.0
  0
LINE
  5
12D3
100
AcDbEntity
  8
PCB-BOTT
100
AcDbLine
 10
76.438946
 20
54.796157
 30
0.0
 11
76.864364
 21
59.90117
 31
0.0
  0
LINE
  5
12D4
100
AcDbEntity
  8
PCB-BOTT
100
AcDbLine
 10
72.66
 20
60.21
 30
0.0
 11
72.12
 21
60.21
 31
0.0
  0
LINE
  5
12D5
100
AcDbEntity
  8
PCB-BOTT
100
AcDbLine
 10
72.66
 20
61.71
 30
0.0
 11
72.12
 21
61.71
 31
0.0
  0
LINE
  5
12D6
100
AcDbEntity
  8
PCB-BOTT
100
AcDbLine
 10
67.04
 20
66.79
 30
0.0
 11
67.58
 21
66.79
 31
0.0
  0
LINE
  5
12D7
100
AcDbEntity
  8
PCB-BOTT
100
AcDbLine
 10
67.04
 20
65.29
 30
0.0
 11
67.58
 21
65.29
 31
0.0
  0
LINE
  5
12E0
100
AcDbEntity
  8
PCB-BOTT
100
AcDbLine
 10
72.298738
 20
65.623975
 30
0.0
 11
72.791388
 21
64.885
 31
0.0
  0
LINE
  5
12E1
100
AcDbEntity
  8
PCB-BOTT
100
AcDbLine
 10
71.212848
 20
64.548646
 30
0.0
 11
71.988612
 21
63.385
 31
0.0
  0
LINE
  5
12E2
100
AcDbEntity
  8
PCB-BOTT
100
AcDbLine
 10
72.791388
 20
64.885
 30
0.0
 11
73.182009
 21
64.885
 31
0.0
  0
LINE
  5
12E3
100
AcDbEntity
  8
PCB-BOTT
100
AcDbLine
 10
71.988612
 20
63.385
 30
0.0
 11
74.60566
 21
63.385
 31
0.0
  0
LINE
  5
12E4
100
AcDbEntity
  8
PCB-BOTT
100
AcDbLine
 10
74.883548
 20
65.784209
 30
0.0
 11
74.962563
 21
65.863223
 31
0.0
  0
LINE
  5
12E5
100
AcDbEntity
  8
PCB-BOTT
100
AcDbLine
 10
74.60566
 20
63.385
 30
0.0
 11
76.023223
 21
64.802563
 31
0.0
  0
LINE
  5
12E6
100
AcDbEntity
  8
PCB-BOTT
100
AcDbLine
 10
71.212848
 20
64.548646
 30
0.0
 11
69.698034
 21
61.519017
 31
0.0
  0
LINE
  5
12E7
100
AcDbEntity
  8
PCB-BOTT
100
AcDbLine
 10
70.001966
 20
65.480983
 30
0.0
 11
68.356393
 21
62.189837
 31
0.0
  0
LINE
  5
12E8
100
AcDbEntity
  8
PCB-BOTT
100
AcDbLine
 10
69.33
 20
59.96
 30
0.0
 11
69.33
 21
57.327051
 31
0.0
  0
LINE
  5
12E9
100
AcDbEntity
  8
PCB-BOTT
100
AcDbLine
 10
67.83
 20
59.96
 30
0.0
 11
67.83
 21
56.972949
 31
0.0
  0
LINE
  5
12EA
100
AcDbEntity
  8
PCB-BOTT
100
AcDbLine
 10
69.33
 20
57.327051
 30
0.0
 11
70.36356
 21
55.25993
 31
0.0
  0
LINE
  5
12EB
100
AcDbEntity
  8
PCB-BOTT
100
AcDbLine
 10
67.83
 20
56.972949
 30
0.0
 11
69.4385
 21
53.755949
 31
0.0
  0
LINE
  5
12F9
100
AcDbEntity
  8
PCB-BOTT
100
AcDbLine
 10
74.897437
 20
61.136777
 30
0.0
 11
74.976452
 21
61.215791
 31
0.0
  0
LINE
  5
12FA
100
AcDbEntity
  8
PCB-BOTT
100
AcDbLine
 10
75.88934
 20
64.25
 30
0.0
 11
78.332082
 21
64.25
 31
0.0
  0
LINE
  5
12FB
100
AcDbEntity
  8
PCB-BOTT
100
AcDbLine
 10
76.51066
 20
62.75
 30
0.0
 11
77.877918
 21
62.75
 31
0.0
  0
LINE
  5
12FC
100
AcDbEntity
  8
PCB-BOTT
100
AcDbLine
 10
78.332082
 20
64.25
 30
0.0
 11
80.76
 21
62.631388
 31
0.0
  0
LINE
  5
12FD
100
AcDbEntity
  8
PCB-BOTT
100
AcDbLine
 10
77.877918
 20
62.75
 30
0.0
 11
79.26
 21
61.828612
 31
0.0
  0
LINE
  5
12FE
100
AcDbEntity
  8
PCB-BOTT
100
AcDbLine
 10
80.76
 20
62.631388
 30
0.0
 11
80.76
 21
56.19066
 31
0.0
  0
LINE
  5
12FF
100
AcDbEntity
  8
PCB-BOTT
100
AcDbLine
 10
79.26
 20
61.828612
 30
0.0
 11
79.26
 21
55.56934
 31
0.0
  0
LINE
  5
1300
100
AcDbEntity
  8
PCB-BOTT
100
AcDbLine
 10
80.76
 20
56.19066
 30
0.0
 11
83.3
 21
53.65066
 31
0.0
  0
LINE
  5
1301
100
AcDbEntity
  8
PCB-BOTT
100
AcDbLine
 10
79.26
 20
55.56934
 30
0.0
 11
81.8
 21
53.02934
 31
0.0
  0
LINE
  5
1302
100
AcDbEntity
  8
PCB-BOTT
100
AcDbLine
 10
83.3
 20
53.65066
 30
0.0
 11
83.3
 21
51.277991
 31
0.0
  0
LINE
  5
1303
100
AcDbEntity
  8
PCB-BOTT
100
AcDbLine
 10
81.8
 20
53.02934
 30
0.0
 11
81.8
 21
51.277991
 31
0.0
  0
LINE
  5
1304
100
AcDbEntity
  8
PCB-BOTT
100
AcDbLine
 10
82.03
 20
35.675
 30
0.0
 11
82.82
 21
35.675
 31
0.0
  0
LINE
  5
1305
100
AcDbEntity
  8
PCB-BOTT
100
AcDbLine
 10
81.28
 20
34.175
 30
0.0
 11
82.82
 21
34.175
 31
0.0
  0
LINE
  5
1306
100
AcDbEntity
  8
PCB-BOTT
100
AcDbLine
 10
80.53
 20
35.675
 30
0.0
 11
80.53
 21
42.722051
 31
0.0
  0
LINE
  5
1307
100
AcDbEntity
  8
PCB-BOTT
100
AcDbLine
 10
82.03
 20
35.675
 30
0.0
 11
82.03
 21
42.367949
 31
0.0
  0
LINE
  5
1308
100
AcDbEntity
  8
PCB-BOTT
100
AcDbLine
 10
80.53
 20
42.722051
 30
0.0
 11
81.8
 21
43.357051
 31
0.0
  0
LINE
  5
1309
100
AcDbEntity
  8
PCB-BOTT
100
AcDbLine
 10
82.03
 20
42.367949
 30
0.0
 11
83.3
 21
43.002949
 31
0.0
  0
LINE
  5
130A
100
AcDbEntity
  8
PCB-BOTT
100
AcDbLine
 10
81.8
 20
43.357051
 30
0.0
 11
81.8
 21
45.72
 31
0.0
  0
LINE
  5
130B
100
AcDbEntity
  8
PCB-BOTT
100
AcDbLine
 10
83.3
 20
43.002949
 30
0.0
 11
83.3
 21
45.72
 31
0.0
  0
LINE
  5
130C
100
AcDbEntity
  8
PCB-BOTT
100
AcDbLine
 10
83.334929
 20
41.157044
 30
0.0
 11
83.705
 21
42.637329
 31
0.0
  0
LINE
  5
130D
100
AcDbEntity
  8
PCB-BOTT
100
AcDbLine
 10
84.790143
 20
40.793241
 30
0.0
 11
85.205
 21
42.452671
 31
0.0
  0
LINE
  5
130E
100
AcDbEntity
  8
PCB-BOTT
100
AcDbLine
 10
83.705
 20
42.637329
 30
0.0
 11
83.705
 21
47.26
 31
0.0
  0
LINE
  5
130F
100
AcDbEntity
  8
PCB-BOTT
100
AcDbLine
 10
85.205
 20
42.452671
 30
0.0
 11
85.205
 21
47.26
 31
0.0
  0
LINE
  5
1310
100
AcDbEntity
  8
PCB-BOTT
100
AcDbLine
 10
85.210483
 20
49.255864
 30
0.0
 11
88.794959
 21
50.28
 31
0.0
  0
LINE
  5
1311
100
AcDbEntity
  8
PCB-BOTT
100
AcDbLine
 10
85.622565
 20
47.813578
 30
0.0
 11
89.005041
 21
48.78
 31
0.0
  0
LINE
  5
1312
100
AcDbEntity
  8
PCB-BOTT
100
AcDbLine
 10
88.794959
 20
50.28
 30
0.0
 11
93.23
 21
50.28
 31
0.0
  0
LINE
  5
1313
100
AcDbEntity
  8
PCB-BOTT
100
AcDbLine
 10
89.005041
 20
48.78
 30
0.0
 11
94.73
 21
48.78
 31
0.0
  0
LINE
  5
1314
100
AcDbEntity
  8
PCB-BOTT
100
AcDbLine
 10
93.23
 20
50.28
 30
0.0
 11
93.23
 21
51.889663
 31
0.0
  0
LINE
  5
1315
100
AcDbEntity
  8
PCB-BOTT
100
AcDbLine
 10
94.73
 20
48.78
 30
0.0
 11
94.73
 21
51.889663
 31
0.0
  0
LINE
  5
1316
100
AcDbEntity
  8
PCB-BOTT
100
AcDbLine
 10
86.71
 20
61.525
 30
0.0
 11
92.73
 21
66.04
 31
0.0
  0
LINE
  5
1317
100
AcDbEntity
  8
PCB-BOTT
100
AcDbLine
 10
87.61
 20
60.325
 30
0.0
 11
93.63
 21
64.84
 31
0.0
  0
LINE
  5
1318
100
AcDbEntity
  8
PCB-BOTT
100
AcDbLine
 10
93.940957
 20
59.71061
 30
0.0
 11
92.19
 21
57.521914
 31
0.0
  0
LINE
  5
1319
100
AcDbEntity
  8
PCB-BOTT
100
AcDbLine
 10
92.769653
 20
60.647652
 30
0.0
 11
90.69
 21
58.048086
 31
0.0
  0
LINE
  5
131A
100
AcDbEntity
  8
PCB-BOTT
100
AcDbLine
 10
92.19
 20
57.521914
 30
0.0
 11
92.19
 21
54.950337
 31
0.0
  0
LINE
  5
131B
100
AcDbEntity
  8
PCB-BOTT
100
AcDbLine
 10
90.69
 20
58.048086
 30
0.0
 11
90.69
 21
54.950337
 31
0.0
  0
LINE
  5
1326
100
AcDbEntity
  8
PCB-BOTT
100
AcDbLine
 10
82.657159
 20
60.783585
 30
0.0
 11
78.320904
 21
67.83
 31
0.0
  0
LINE
  5
1327
100
AcDbEntity
  8
PCB-BOTT
100
AcDbLine
 10
83.934646
 20
61.569731
 30
0.0
 11
79.159096
 21
69.33
 31
0.0
  0
LINE
  5
1328
100
AcDbEntity
  8
PCB-BOTT
100
AcDbLine
 10
78.320904
 20
67.83
 30
0.0
 11
69.33
 21
67.83
 31
0.0
  0
LINE
  5
1329
100
AcDbEntity
  8
PCB-BOTT
100
AcDbLine
 10
79.159096
 20
69.33
 30
0.0
 11
67.83
 21
69.33
 31
0.0
  0
LINE
  5
132A
100
AcDbEntity
  8
PCB-BOTT
100
AcDbLine
 10
69.33
 20
67.83
 30
0.0
 11
69.33
 21
67.04
 31
0.0
  0
LINE
  5
132B
100
AcDbEntity
  8
PCB-BOTT
100
AcDbLine
 10
67.83
 20
69.33
 30
0.0
 11
67.83
 21
67.04
 31
0.0
  0
LINE
  5
132C
100
AcDbEntity
  8
PCB-BOTT
100
AcDbLine
 10
92.9335
 20
44.97
 30
0.0
 11
92.4865
 21
44.97
 31
0.0
  0
LINE
  5
132D
100
AcDbEntity
  8
PCB-BOTT
100
AcDbLine
 10
92.9335
 20
46.47
 30
0.0
 11
92.4865
 21
46.47
 31
0.0
  0
LINE
  5
132E
100
AcDbEntity
  8
PCB-BOTT
100
AcDbLine
 10
94.73
 20
44.189663
 30
0.0
 11
94.73
 21
41.005
 31
0.0
  0
LINE
  5
132F
100
AcDbEntity
  8
PCB-BOTT
100
AcDbLine
 10
93.23
 20
44.189663
 30
0.0
 11
93.23
 21
41.005
 31
0.0
  0
LINE
  5
1330
100
AcDbEntity
  8
PCB-BOTT
100
AcDbLine
 10
88.15
 20
40.37
 30
0.0
 11
88.15
 21
44.189663
 31
0.0
  0
LINE
  5
1331
100
AcDbEntity
  8
PCB-BOTT
100
AcDbLine
 10
89.65
 20
40.37
 30
0.0
 11
89.65
 21
44.189663
 31
0.0
  0
LINE
  5
1332
100
AcDbEntity
  8
PCB-BOTT
100
AcDbLine
 10
90.099672
 20
37.181123
 30
0.0
 11
93.307013
 21
35.97837
 31
0.0
  0
LINE
  5
1333
100
AcDbEntity
  8
PCB-BOTT
100
AcDbLine
 10
89.572987
 20
35.77663
 30
0.0
 11
92.780328
 21
34.573877
 31
0.0
  0
LINE
  5
1334
100
AcDbEntity
  8
PCB-BOTT
100
AcDbLine
 10
101.87
 20
52.59
 30
0.0
 11
100.445
 21
52.59
 31
0.0
  0
LINE
  5
1335
100
AcDbEntity
  8
PCB-BOTT
100
AcDbLine
 10
101.87
 20
54.09
 30
0.0
 11
98.945
 21
54.09
 31
0.0
  0
LINE
  5
1336
100
AcDbEntity
  8
PCB-BOTT
100
AcDbLine
 10
100.445
 20
52.59
 30
0.0
 11
100.445
 21
49.01
 31
0.0
  0
LINE
  5
1337
100
AcDbEntity
  8
PCB-BOTT
100
AcDbLine
 10
98.945
 20
54.09
 30
0.0
 11
98.945
 21
43.376463
 31
0.0
  0
LINE
  5
1338
100
AcDbEntity
  8
PCB-BOTT
100
AcDbLine
 10
100.445
 20
42.983537
 30
0.0
 11
95.123943
 21
35.42888
 31
0.0
  0
LINE
  5
1339
100
AcDbEntity
  8
PCB-BOTT
100
AcDbLine
 10
98.945
 20
43.376463
 30
0.0
 11
93.81658
 21
36.164271
 31
0.0
  0
LINE
  5
133A
100
AcDbEntity
  8
PCB-BOTT
100
AcDbLine
 10
101.87
 20
47.51
 30
0.0
 11
100.445
 21
47.51
 31
0.0
  0
LINE
  5
133B
100
AcDbEntity
  8
PCB-BOTT
100
AcDbLine
 10
101.87
 20
49.01
 30
0.0
 11
100.445
 21
49.01
 31
0.0
  0
LINE
  5
133C
100
AcDbEntity
  8
PCB-BOTT
100
AcDbLine
 10
70.70458
 20
47.543704
 30
0.0
 11
71.965357
 21
49.645
 31
0.0
  0
LINE
  5
133D
100
AcDbEntity
  8
PCB-BOTT
100
AcDbLine
 10
71.5315
 20
46.006429
 30
0.0
 11
72.814643
 21
48.145
 31
0.0
  0
LINE
  5
133E
100
AcDbEntity
  8
PCB-BOTT
100
AcDbLine
 10
71.965357
 20
49.645
 30
0.0
 11
78.197329
 21
49.645
 31
0.0
  0
LINE
  5
133F
100
AcDbEntity
  8
PCB-BOTT
100
AcDbLine
 10
72.814643
 20
48.145
 30
0.0
 11
78.012671
 21
48.145
 31
0.0
  0
LINE
  5
1340
100
AcDbEntity
  8
PCB-BOTT
100
AcDbLine
 10
78.197329
 20
49.645
 30
0.0
 11
79.856759
 21
49.230143
 31
0.0
  0
LINE
  5
1341
100
AcDbEntity
  8
PCB-BOTT
100
AcDbLine
 10
78.012671
 20
48.145
 30
0.0
 11
79.492956
 21
47.774929
 31
0.0
  0
LINE
  5
1342
100
AcDbEntity
  8
PCB-BOTT
100
AcDbLine
 10
64.596016
 20
51.401041
 30
0.0
 11
67.998301
 21
50.915
 31
0.0
  0
LINE
  5
1343
100
AcDbEntity
  8
PCB-BOTT
100
AcDbLine
 10
64.383883
 20
49.916117
 30
0.0
 11
67.891699
 21
49.415
 31
0.0
  0
LINE
  5
1344
100
AcDbEntity
  8
PCB-BOTT
100
AcDbLine
 10
67.998301
 20
50.915
 30
0.0
 11
70.695357
 21
50.915
 31
0.0
  0
LINE
  5
1345
100
AcDbEntity
  8
PCB-BOTT
100
AcDbLine
 10
67.891699
 20
49.415
 30
0.0
 11
71.544643
 21
49.415
 31
0.0
  0
LINE
  5
1346
100
AcDbEntity
  8
PCB-BOTT
100
AcDbLine
 10
70.695357
 20
50.915
 30
0.0
 11
71.9785
 21
53.053571
 31
0.0
  0
LINE
  5
1347
100
AcDbEntity
  8
PCB-BOTT
100
AcDbLine
 10
71.544643
 20
49.415
 30
0.0
 11
72.848443
 21
51.588001
 31
0.0
  0
LINE
  5
135C
100
AcDbEntity
  8
PCB-BOTT
100
AcDbLine
 10
66.8985
 20
53.557668
 30
0.0
 11
63.385
 21
58.827918
 31
0.0
  0
LINE
  5
135D
100
AcDbEntity
  8
PCB-BOTT
100
AcDbLine
 10
67.600587
 20
55.208701
 30
0.0
 11
64.885
 21
59.282082
 31
0.0
  0
LINE
  5
135E
100
AcDbEntity
  8
PCB-BOTT
100
AcDbLine
 10
63.385
 20
58.827918
 30
0.0
 11
63.385
 21
68.305469
 31
0.0
  0
LINE
  5
135F
100
AcDbEntity
  8
PCB-BOTT
100
AcDbLine
 10
64.885
 20
59.282082
 30
0.0
 11
64.885
 21
67.584531
 31
0.0
  0
LINE
  5
1360
100
AcDbEntity
  8
PCB-BOTT
100
AcDbLine
 10
63.385
 20
68.305469
 30
0.0
 11
67.046914
 21
71.235
 31
0.0
  0
LINE
  5
1361
100
AcDbEntity
  8
PCB-BOTT
100
AcDbLine
 10
64.885
 20
67.584531
 30
0.0
 11
67.573086
 21
69.735
 31
0.0
  0
LINE
  5
1362
100
AcDbEntity
  8
PCB-BOTT
100
AcDbLine
 10
67.046914
 20
71.235
 30
0.0
 11
94.220349
 21
71.235
 31
0.0
  0
LINE
  5
1363
100
AcDbEntity
  8
PCB-BOTT
100
AcDbLine
 10
67.573086
 20
69.735
 30
0.0
 11
93.739651
 21
69.735
 31
0.0
  0
LINE
  5
1364
100
AcDbEntity
  8
PCB-BOTT
100
AcDbLine
 10
94.220349
 20
71.235
 30
0.0
 11
99.175
 21
67.695963
 31
0.0
  0
LINE
  5
1365
100
AcDbEntity
  8
PCB-BOTT
100
AcDbLine
 10
93.739651
 20
69.735
 30
0.0
 11
97.675
 21
66.924037
 31
0.0
  0
LINE
  5
1366
100
AcDbEntity
  8
PCB-BOTT
100
AcDbLine
 10
99.175
 20
67.695963
 30
0.0
 11
99.175
 21
57.631057
 31
0.0
  0
LINE
  5
1367
100
AcDbEntity
  8
PCB-BOTT
100
AcDbLine
 10
97.675
 20
66.924037
 30
0.0
 11
97.675
 21
57.938943
 31
0.0
  0
LINE
  5
1368
100
AcDbEntity
  8
PCB-BOTT
100
AcDbLine
 10
99.175
 20
57.631057
 30
0.0
 11
97.5665
 21
53.87789
 31
0.0
  0
LINE
  5
1369
100
AcDbEntity
  8
PCB-BOTT
100
AcDbLine
 10
97.675
 20
57.938943
 30
0.0
 11
96.529862
 21
55.266954
 31
0.0
  0
LINE
  5
136A
100
AcDbEntity
  8
PCB-BOTT
100
AcDbLine
 10
71.87
 20
33.135
 30
0.0
 11
75.45
 21
33.135
 31
0.0
  0
LINE
  5
136B
100
AcDbEntity
  8
PCB-BOTT
100
AcDbLine
 10
74.41
 20
36.715
 30
0.0
 11
76.95
 21
36.715
 31
0.0
  0
ARC
  5
136C
100
AcDbEntity
  8
PCB-BOTT
100
AcDbCircle
 10
76.2
 20
34.925
 30
0.0
 40
1.25
100
AcDbArc
 50
36.869898
 51
233.130102
  0
ARC
  5
136D
100
AcDbEntity
  8
PCB-BOTT
100
AcDbCircle
 10
78.74
 20
34.925
 30
0.0
 40
1.25
100
AcDbArc
 50
36.869898
 51
143.130102
  0
LINE
  5
136E
100
AcDbEntity
  8
PCB-BOTT
100
AcDbLine
 10
67.749545
 20
40.939262
 30
0.0
 11
67.329647
 21
44.073035
 31
0.0
  0
ARC
  5
136F
100
AcDbEntity
  8
PCB-BOTT
100
AcDbCircle
 10
68.58
 20
40.005
 30
0.0
 40
1.25
100
AcDbArc
 50
131.633539
 51
233.130102
  0
LWPOLYLINE
  5
1370
100
AcDbEntity
  8
PCB-BOTT
  6
CONTINUOUS
100
AcDbPolyline
 90
        3
 70
     0
 43
0.0
 10
93.23
 20
44.189663
 42
-0.195374
 10
92.9335
 20
44.9195
 10
92.9335
 20
44.97
  0
LINE
  5
1371
100
AcDbEntity
  8
PCB-BOTT
100
AcDbLine
 10
73.836777
 20
62.197437
 30
0.0
 11
75.88934
 21
64.25
 31
0.0
  0
LINE
  5
1372
100
AcDbEntity
  8
PCB-BOTT
100
AcDbLine
 10
75.944209
 20
62.183548
 30
0.0
 11
76.51066
 21
62.75
 31
0.0
  0
ARC
  5
1374
100
AcDbEntity
  8
PCB-BOTT
100
AcDbCircle
 10
73.66
 20
60.96
 30
0.0
 40
1.25
100
AcDbArc
 50
81.869898
 51
143.130102
  0
ARC
  5
1375
100
AcDbEntity
  8
PCB-BOTT
100
AcDbCircle
 10
68.58
 20
60.96
 30
0.0
 40
1.25
100
AcDbArc
 50
100.304846
 51
233.130102
  0
ARC
  5
1376
100
AcDbEntity
  8
PCB-BOTT
100
AcDbCircle
 10
71.12
 20
66.04
 30
0.0
 40
1.25
100
AcDbArc
 50
340.559965
 51
206.565051
  0
LINE
  5
1377
100
AcDbEntity
  8
PCB-BOTT
100
AcDbLine
 10
100.445
 20
47.51
 30
0.0
 11
100.445
 21
42.983537
 31
0.0
  0
LINE
  5
1378
100
AcDbEntity
  8
PCB-BOTT
100
AcDbLine
 10
79.74
 20
35.675
 30
0.0
 11
80.53
 21
35.675
 31
0.0
  0
LINE
  5
1379
100
AcDbEntity
  8
PCB-BOTT
100
AcDbLine
 10
79.74
 20
34.175
 30
0.0
 11
81.28
 21
34.175
 31
0.0
  0
ARC
  5
137A
100
AcDbEntity
  8
PCB-BOTT
100
AcDbCircle
 10
84.455
 20
48.26
 30
0.0
 40
1.25
100
AcDbArc
 50
306.869898
 51
339.075498
  0
ARC
  5
137C
100
AcDbEntity
  8
PCB-BOTT
100
AcDbCircle
 10
68.58
 20
66.04
 30
0.0
 40
1.25
100
AcDbArc
 50
126.869898
 51
143.130102
  0
LINE
  5
1394
100
AcDbEntity
  8
PCB-TOP
100
AcDbLine
 10
62.5
 20
47.51
 30
0.0
 11
60.21
 21
47.51
 31
0.0
  0
LINE
  5
1395
100
AcDbEntity
  8
PCB-TOP
100
AcDbLine
 10
62.5
 20
49.01
 30
0.0
 11
61.71
 21
49.01
 31
0.0
  0
LINE
  5
1396
100
AcDbEntity
  8
PCB-TOP
100
AcDbLine
 10
60.21
 20
47.51
 30
0.0
 11
60.21
 21
60.588086
 31
0.0
  0
LINE
  5
1397
100
AcDbEntity
  8
PCB-TOP
100
AcDbLine
 10
61.71
 20
49.01
 30
0.0
 11
61.71
 21
60.061914
 31
0.0
  0
LINE
  5
1398
100
AcDbEntity
  8
PCB-TOP
100
AcDbLine
 10
60.21
 20
60.588086
 30
0.0
 11
63.139531
 21
64.25
 31
0.0
  0
LINE
  5
1399
100
AcDbEntity
  8
PCB-TOP
100
AcDbLine
 10
61.71
 20
60.061914
 30
0.0
 11
63.860469
 21
62.75
 31
0.0
  0
LINE
  5
139A
100
AcDbEntity
  8
PCB-TOP
100
AcDbLine
 10
63.139531
 20
64.25
 30
0.0
 11
70.37
 21
64.25
 31
0.0
  0
LINE
  5
139B
100
AcDbEntity
  8
PCB-TOP
100
AcDbLine
 10
63.860469
 20
62.75
 30
0.0
 11
71.87
 21
62.75
 31
0.0
  0
LINE
  5
139C
100
AcDbEntity
  8
PCB-TOP
100
AcDbLine
 10
70.37
 20
64.25
 30
0.0
 11
70.37
 21
65.04
 31
0.0
  0
LINE
  5
139D
100
AcDbEntity
  8
PCB-TOP
100
AcDbLine
 10
71.87
 20
62.75
 30
0.0
 11
71.87
 21
65.04
 31
0.0
  0
LINE
  5
139E
100
AcDbEntity
  8
PCB-TOP
100
AcDbLine
 10
66.79
 20
59.96
 30
0.0
 11
66.79
 21
50.28
 31
0.0
  0
LINE
  5
139F
100
AcDbEntity
  8
PCB-TOP
100
AcDbLine
 10
65.29
 20
59.96
 30
0.0
 11
65.29
 21
48.78
 31
0.0
  0
LINE
  5
13A0
100
AcDbEntity
  8
PCB-TOP
100
AcDbLine
 10
66.79
 20
50.28
 30
0.0
 11
71.235
 21
50.28
 31
0.0
  0
LINE
  5
13A1
100
AcDbEntity
  8
PCB-TOP
100
AcDbLine
 10
65.29
 20
48.78
 30
0.0
 11
69.735
 21
48.78
 31
0.0
  0
LINE
  5
13A2
100
AcDbEntity
  8
PCB-TOP
100
AcDbLine
 10
71.235
 20
50.28
 30
0.0
 11
71.235
 21
47.250337
 31
0.0
  0
LINE
  5
13A3
100
AcDbEntity
  8
PCB-TOP
100
AcDbLine
 10
69.735
 20
48.78
 30
0.0
 11
69.735
 21
47.250337
 31
0.0
  0
LINE
  5
13A4
100
AcDbEntity
  8
PCB-TOP
100
AcDbLine
 10
71.343607
 20
38.775163
 30
0.0
 11
69.698034
 21
35.484017
 31
0.0
  0
LINE
  5
13A5
100
AcDbEntity
  8
PCB-TOP
100
AcDbLine
 10
70.001966
 20
39.445983
 30
0.0
 11
68.356393
 21
36.154837
 31
0.0
  0
LINE
  5
13A7
100
AcDbEntity
  8
PCB-TOP
100
AcDbLine
 10
72.090143
 20
40.793241
 30
0.0
 11
73.349204
 21
43.924485
 31
0.0
  0
LINE
  5
13A8
100
AcDbEntity
  8
PCB-TOP
100
AcDbLine
 10
74.778034
 20
39.445983
 30
0.0
 11
75.393525
 21
38.215
 31
0.0
  0
LINE
  5
13A9
100
AcDbEntity
  8
PCB-TOP
100
AcDbLine
 10
73.436393
 20
38.775163
 30
0.0
 11
74.466475
 21
36.715
 31
0.0
  0
LINE
  5
13AA
100
AcDbEntity
  8
PCB-TOP
100
AcDbLine
 10
75.393525
 20
38.215
 30
0.0
 11
86.452329
 21
38.215
 31
0.0
  0
LINE
  5
13AB
100
AcDbEntity
  8
PCB-TOP
100
AcDbLine
 10
74.466475
 20
36.715
 30
0.0
 11
86.267671
 21
36.715
 31
0.0
  0
LINE
  5
13AC
100
AcDbEntity
  8
PCB-TOP
100
AcDbLine
 10
86.452329
 20
38.215
 30
0.0
 11
88.111759
 21
37.800143
 31
0.0
  0
LINE
  5
13AD
100
AcDbEntity
  8
PCB-TOP
100
AcDbLine
 10
86.267671
 20
36.715
 30
0.0
 11
87.747956
 21
36.344929
 31
0.0
  0
LINE
  5
13AE
100
AcDbEntity
  8
PCB-TOP
100
AcDbLine
 10
74.778034
 20
65.480983
 30
0.0
 11
76.423607
 21
62.189837
 31
0.0
  0
LINE
  5
13AF
100
AcDbEntity
  8
PCB-TOP
100
AcDbLine
 10
73.436393
 20
64.810163
 30
0.0
 11
75.081966
 21
61.519017
 31
0.0
  0
LINE
  5
13B8
100
AcDbEntity
  8
PCB-TOP
100
AcDbLine
 10
101.632563
 20
50.976777
 30
0.0
 11
98.31
 21
54.29934
 31
0.0
  0
LINE
  5
13B9
100
AcDbEntity
  8
PCB-TOP
100
AcDbLine
 10
102.693223
 20
52.037437
 30
0.0
 11
99.81
 21
54.92066
 31
0.0
  0
LINE
  5
13BA
100
AcDbEntity
  8
PCB-TOP
100
AcDbLine
 10
98.31
 20
54.29934
 30
0.0
 11
98.31
 21
55.56934
 31
0.0
  0
LINE
  5
13BB
100
AcDbEntity
  8
PCB-TOP
100
AcDbLine
 10
99.81
 20
54.92066
 30
0.0
 11
99.81
 21
56.19066
 31
0.0
  0
LINE
  5
13BC
100
AcDbEntity
  8
PCB-TOP
100
AcDbLine
 10
98.31
 20
55.56934
 30
0.0
 11
97.47934
 21
56.4
 31
0.0
  0
LINE
  5
13BD
100
AcDbEntity
  8
PCB-TOP
100
AcDbLine
 10
99.81
 20
56.19066
 30
0.0
 11
98.10066
 21
57.9
 31
0.0
  0
LINE
  5
13BE
100
AcDbEntity
  8
PCB-TOP
100
AcDbLine
 10
97.47934
 20
56.4
 30
0.0
 11
92.19
 21
56.4
 31
0.0
  0
LINE
  5
13BF
100
AcDbEntity
  8
PCB-TOP
100
AcDbLine
 10
98.10066
 20
57.9
 30
0.0
 11
90.69
 21
57.9
 31
0.0
  0
LINE
  5
13C0
100
AcDbEntity
  8
PCB-TOP
100
AcDbLine
 10
92.19
 20
56.4
 30
0.0
 11
92.19
 21
54.950337
 31
0.0
  0
LINE
  5
13C1
100
AcDbEntity
  8
PCB-TOP
100
AcDbLine
 10
90.69
 20
57.9
 30
0.0
 11
90.69
 21
54.950337
 31
0.0
  0
LINE
  5
13C2
100
AcDbEntity
  8
PCB-TOP
100
AcDbLine
 10
89.9465
 20
52.924051
 30
0.0
 11
90.633525
 21
51.55
 31
0.0
  0
LINE
  5
13C4
100
AcDbEntity
  8
PCB-TOP
100
AcDbLine
 10
90.633525
 20
51.55
 30
0.0
 11
98.765326
 21
51.55
 31
0.0
  0
LINE
  5
13C5
100
AcDbEntity
  8
PCB-TOP
100
AcDbLine
 10
89.706475
 20
50.05
 30
0.0
 11
98.084674
 21
50.05
 31
0.0
  0
LINE
  5
13C6
100
AcDbEntity
  8
PCB-TOP
100
AcDbLine
 10
98.765326
 20
51.55
 30
0.0
 11
102.775928
 21
46.966455
 31
0.0
  0
LINE
  5
13C7
100
AcDbEntity
  8
PCB-TOP
100
AcDbLine
 10
98.084674
 20
50.05
 30
0.0
 11
101.647063
 21
45.978698
 31
0.0
  0
LINE
  5
13D2
100
AcDbEntity
  8
PCB-TOP
100
AcDbLine
 10
95.77
 20
47.250337
 30
0.0
 11
95.77
 21
48.145
 31
0.0
  0
LINE
  5
13D3
100
AcDbEntity
  8
PCB-TOP
100
AcDbLine
 10
97.27
 20
47.250337
 30
0.0
 11
97.27
 21
49.645
 31
0.0
  0
LINE
  5
13D4
100
AcDbEntity
  8
PCB-TOP
100
AcDbLine
 10
95.77
 20
48.145
 30
0.0
 11
88.093525
 21
48.145
 31
0.0
  0
LINE
  5
13D5
100
AcDbEntity
  8
PCB-TOP
100
AcDbLine
 10
97.27
 20
49.645
 30
0.0
 11
87.166475
 21
49.645
 31
0.0
  0
LINE
  5
13D6
100
AcDbEntity
  8
PCB-TOP
100
AcDbLine
 10
88.093525
 20
48.145
 30
0.0
 11
86.188525
 21
44.335
 31
0.0
  0
LINE
  5
13D7
100
AcDbEntity
  8
PCB-TOP
100
AcDbLine
 10
87.166475
 20
49.645
 30
0.0
 11
85.261475
 21
45.835
 31
0.0
  0
LINE
  5
13D8
100
AcDbEntity
  8
PCB-TOP
100
AcDbLine
 10
86.188525
 20
44.335
 30
0.0
 11
76.433056
 21
44.335
 31
0.0
  0
LINE
  5
13D9
100
AcDbEntity
  8
PCB-TOP
100
AcDbLine
 10
85.261475
 20
45.835
 30
0.0
 11
76.6115
 21
45.835
 31
0.0
  0
LINE
  5
13DA
100
AcDbEntity
  8
PCB-TOP
100
AcDbLine
 10
73.325554
 20
47.522912
 30
0.0
 11
75.163612
 21
50.28
 31
0.0
  0
LINE
  5
13DC
100
AcDbEntity
  8
PCB-TOP
100
AcDbLine
 10
75.163612
 20
50.28
 30
0.0
 11
76.929431
 21
50.28
 31
0.0
  0
LINE
  5
13DD
100
AcDbEntity
  8
PCB-TOP
100
AcDbLine
 10
75.966388
 20
48.78
 30
0.0
 11
78.010569
 21
48.78
 31
0.0
  0
LINE
  5
13DE
100
AcDbEntity
  8
PCB-TOP
100
AcDbLine
 10
76.929431
 20
50.28
 30
0.0
 11
78.199431
 21
54.09
 31
0.0
  0
LINE
  5
13DF
100
AcDbEntity
  8
PCB-TOP
100
AcDbLine
 10
78.010569
 20
48.78
 30
0.0
 11
79.280569
 21
52.59
 31
0.0
  0
LINE
  5
13E0
100
AcDbEntity
  8
PCB-TOP
100
AcDbLine
 10
78.199431
 20
54.09
 30
0.0
 11
83.648525
 21
54.09
 31
0.0
  0
LINE
  5
13E1
100
AcDbEntity
  8
PCB-TOP
100
AcDbLine
 10
79.280569
 20
52.59
 30
0.0
 11
82.721475
 21
52.59
 31
0.0
  0
LINE
  5
13E2
100
AcDbEntity
  8
PCB-TOP
100
AcDbLine
 10
83.648525
 20
54.09
 30
0.0
 11
84.678607
 21
52.029837
 31
0.0
  0
LINE
  5
13E3
100
AcDbEntity
  8
PCB-TOP
100
AcDbLine
 10
82.721475
 20
52.59
 30
0.0
 11
83.336966
 21
51.359017
 31
0.0
  0
LINE
  5
13E4
100
AcDbEntity
  8
PCB-TOP
100
AcDbLine
 10
89.733494
 20
37.761552
 30
0.0
 11
92.000735
 21
38.215
 31
0.0
  0
LINE
  5
13E5
100
AcDbEntity
  8
PCB-TOP
100
AcDbLine
 10
90.027668
 20
36.290681
 30
0.0
 11
92.149265
 21
36.715
 31
0.0
  0
LINE
  5
13E6
100
AcDbEntity
  8
PCB-TOP
100
AcDbLine
 10
92.000735
 20
38.215
 30
0.0
 11
96.242557
 21
38.215
 31
0.0
  0
LINE
  5
13E7
100
AcDbEntity
  8
PCB-TOP
100
AcDbLine
 10
92.149265
 20
36.715
 30
0.0
 11
96.797443
 21
36.715
 31
0.0
  0
LINE
  5
13E8
100
AcDbEntity
  8
PCB-TOP
100
AcDbLine
 10
96.242557
 20
38.215
 30
0.0
 11
104.66
 21
43.524951
 31
0.0
  0
LINE
  5
13E9
100
AcDbEntity
  8
PCB-TOP
100
AcDbLine
 10
96.797443
 20
36.715
 30
0.0
 11
106.16
 21
42.835049
 31
0.0
  0
LINE
  5
13EA
100
AcDbEntity
  8
PCB-TOP
100
AcDbLine
 10
104.66
 20
43.524951
 30
0.0
 11
104.66
 21
55.56934
 31
0.0
  0
LINE
  5
13EB
100
AcDbEntity
  8
PCB-TOP
100
AcDbLine
 10
106.16
 20
42.835049
 30
0.0
 11
106.16
 21
56.19066
 31
0.0
  0
LINE
  5
13EC
100
AcDbEntity
  8
PCB-TOP
100
AcDbLine
 10
104.66
 20
55.56934
 30
0.0
 11
97.47934
 21
62.75
 31
0.0
  0
LINE
  5
13ED
100
AcDbEntity
  8
PCB-TOP
100
AcDbLine
 10
106.16
 20
56.19066
 30
0.0
 11
98.10066
 21
64.25
 31
0.0
  0
LINE
  5
13EE
100
AcDbEntity
  8
PCB-TOP
100
AcDbLine
 10
97.47934
 20
62.75
 30
0.0
 11
82.286914
 21
62.75
 31
0.0
  0
LINE
  5
13EF
100
AcDbEntity
  8
PCB-TOP
100
AcDbLine
 10
98.10066
 20
64.25
 30
0.0
 11
82.813086
 21
64.25
 31
0.0
  0
LINE
  5
13F0
100
AcDbEntity
  8
PCB-TOP
100
AcDbLine
 10
82.286914
 20
62.75
 30
0.0
 11
78.625
 21
65.679531
 31
0.0
  0
LINE
  5
13F1
100
AcDbEntity
  8
PCB-TOP
100
AcDbLine
 10
82.813086
 20
64.25
 30
0.0
 11
80.125
 21
66.400469
 31
0.0
  0
LINE
  5
13F2
100
AcDbEntity
  8
PCB-TOP
100
AcDbLine
 10
78.625
 20
65.679531
 30
0.0
 11
78.625
 21
67.543612
 31
0.0
  0
LINE
  5
13F3
100
AcDbEntity
  8
PCB-TOP
100
AcDbLine
 10
80.125
 20
66.400469
 30
0.0
 11
80.125
 21
68.346388
 31
0.0
  0
LINE
  5
13F4
100
AcDbEntity
  8
PCB-TOP
100
AcDbLine
 10
78.625
 20
67.543612
 30
0.0
 11
77.242918
 21
68.465
 31
0.0
  0
LINE
  5
13F5
100
AcDbEntity
  8
PCB-TOP
100
AcDbLine
 10
80.125
 20
68.346388
 30
0.0
 11
77.697082
 21
69.965
 31
0.0
  0
LINE
  5
13F6
100
AcDbEntity
  8
PCB-TOP
100
AcDbLine
 10
77.242918
 20
68.465
 30
0.0
 11
70.357775
 21
68.465
 31
0.0
  0
LINE
  5
13F7
100
AcDbEntity
  8
PCB-TOP
100
AcDbLine
 10
77.697082
 20
69.965
 30
0.0
 11
69.342225
 21
69.965
 31
0.0
  0
LINE
  5
13F8
100
AcDbEntity
  8
PCB-TOP
100
AcDbLine
 10
70.357775
 20
68.465
 30
0.0
 11
69.647748
 21
66.689934
 31
0.0
  0
LINE
  5
13F9
100
AcDbEntity
  8
PCB-TOP
100
AcDbLine
 10
69.342225
 20
69.965
 30
0.0
 11
68.255033
 21
67.24702
 31
0.0
  0
LINE
  5
13FA
100
AcDbEntity
  8
PCB-TOP
100
AcDbLine
 10
70.634929
 20
41.157044
 30
0.0
 11
71.999565
 21
44.710587
 31
0.0
  0
ARC
  5
13FB
100
AcDbEntity
  8
PCB-TOP
100
AcDbCircle
 10
71.12
 20
40.005
 30
0.0
 40
1.25
100
AcDbArc
 50
112.833654
 51
206.565051
  0
ARC
  5
13FD
100
AcDbEntity
  8
PCB-TOP
100
AcDbCircle
 10
88.9
 20
36.83
 30
0.0
 40
1.25
100
AcDbArc
 50
48.17983
 51
129.093859
  0
LINE
  5
13FF
100
AcDbEntity
  8
PCB-TOP
100
AcDbLine
 10
74.0715
 20
45.937668
 30
0.0
 11
75.966388
 21
48.78
 31
0.0
  0
LWPOLYLINE
  5
1400
100
AcDbEntity
  8
PCB-TOP
  6
CONTINUOUS
100
AcDbPolyline
 90
        3
 70
     0
 43
0.0
 10
74.0715
 20
45.937668
 10
74.0715
 20
44.9195
 42
-0.324693
 10
73.349204
 20
43.924485
  0
LWPOLYLINE
  5
1402
100
AcDbEntity
  8
PCB-TOP
  6
CONTINUOUS
100
AcDbPolyline
 90
        4
 70
     0
 43
0.0
 10
76.433056
 20
44.335
 42
-0.740271
 10
74.5185
 20
44.9195
 10
74.5185
 20
46.5205
 42
-0.022494
 10
74.522732
 20
46.614516
  0
LINE
  5
1403
100
AcDbEntity
  8
PCB-TOP
100
AcDbLine
 10
74.727748
 20
60.310066
 30
0.0
 11
75.437775
 21
58.535
 31
0.0
  0
LINE
  5
1404
100
AcDbEntity
  8
PCB-TOP
100
AcDbLine
 10
73.335033
 20
59.75298
 30
0.0
 11
74.422225
 21
57.035
 31
0.0
  0
LINE
  5
1405
100
AcDbEntity
  8
PCB-TOP
100
AcDbLine
 10
75.437775
 20
58.535
 30
0.0
 11
85.434951
 21
58.535
 31
0.0
  0
LINE
  5
1406
100
AcDbEntity
  8
PCB-TOP
100
AcDbLine
 10
74.422225
 20
57.035
 30
0.0
 11
84.745049
 21
57.035
 31
0.0
  0
LINE
  5
1407
100
AcDbEntity
  8
PCB-TOP
100
AcDbLine
 10
85.434951
 20
58.535
 30
0.0
 11
88.363128
 21
55.118793
 31
0.0
  0
LINE
  5
1408
100
AcDbEntity
  8
PCB-TOP
100
AcDbLine
 10
84.745049
 20
57.035
 30
0.0
 11
87.8535
 21
53.408474
 31
0.0
  0
LINE
  5
140B
100
AcDbEntity
  8
PCB-TOP
100
AcDbLine
 10
89.706475
 20
50.05
 30
0.0
 11
88.921084
 21
51.573212
 31
0.0
  0
LWPOLYLINE
  5
140C
100
AcDbEntity
  8
PCB-TOP
  6
CONTINUOUS
100
AcDbPolyline
 90
        3
 70
     0
 43
0.0
 10
88.921084
 20
51.573212
 42
-0.420127
 10
87.8535
 20
52.6195
 10
87.8535
 20
53.408474
  0
CIRCLE
  5
140D
102
{ACAD_REACTORS
330
1410
330
1411
102
}
100
AcDbEntity
  8
PCB-TOP
100
AcDbCircle
 10
76.2
 20
40.005
 30
0.0
 40
1.25
  0
CIRCLE
  5
140E
102
{ACAD_REACTORS
330
1410
330
1411
102
}
100
AcDbEntity
  8
PCB-TOP
100
AcDbCircle
 10
76.2
 20
40.005
 30
0.0
 40
0.15
  0
CIRCLE
  5
140F
102
{ACAD_REACTORS
330
1410
330
1411
102
}
100
AcDbEntity
  8
PCB-TOP
100
AcDbCircle
 10
76.2
 20
40.005
 30
0.0
 40
0.15
  0
LWPOLYLINE
  5
1412
100
AcDbEntity
  8
PCB-TOP
  6
CONTINUOUS
100
AcDbPolyline
 90
        6
 70
     0
 43
0.0
 10
90.399446
 20
44.808102
 42
-0.026669
 10
90.3935
 20
44.9195
 10
90.3935
 20
46.5205
 42
-1.0
 10
92.4865
 20
46.5205
 10
92.4865
 20
44.9195
 42
-0.341949
 10
91.701805
 20
43.906277
 42
-0.341949
  0
CIRCLE
  5
1413
100
AcDbEntity
  8
PCB-TOP
100
AcDbCircle
 10
91.44
 20
45.72
 30
0.0
 40
0.15
  0
LINE
  5
1414
100
AcDbEntity
  8
PCB-TOP
100
AcDbLine
 10
78.779043
 20
41.25439
 30
0.0
 11
80.919531
 21
43.93
 31
0.0
  0
LINE
  5
1415
100
AcDbEntity
  8
PCB-TOP
100
AcDbLine
 10
79.950347
 20
40.317348
 30
0.0
 11
81.640469
 21
42.43
 31
0.0
  0
LINE
  5
1416
100
AcDbEntity
  8
PCB-TOP
100
AcDbLine
 10
80.919531
 20
43.93
 30
0.0
 11
88.559336
 21
43.93
 31
0.0
  0
LINE
  5
1417
100
AcDbEntity
  8
PCB-TOP
100
AcDbLine
 10
81.640469
 20
42.43
 30
0.0
 11
90.735726
 21
42.43
 31
0.0
  0
LINE
  5
1418
100
AcDbEntity
  8
PCB-TOP
100
AcDbLine
 10
89.604274
 20
43.93
 30
0.0
 11
90.399446
 21
44.808102
 31
0.0
  0
LINE
  5
1419
100
AcDbEntity
  8
PCB-TOP
100
AcDbLine
 10
90.735726
 20
42.43
 30
0.0
 11
91.701805
 21
43.906277
 31
0.0
  0
ARC
  5
141B
100
AcDbEntity
  8
PCB-BOTT
100
AcDbCircle
 10
93.98
 20
34.925
 30
0.0
 40
1.25
100
AcDbArc
 50
97.512144
 51
122.574057
  0
ARC
  5
141C
100
AcDbEntity
  8
PCB-BOTT
100
AcDbCircle
 10
66.04
 20
66.04
 30
0.0
 40
1.25
100
AcDbArc
 50
202.481957
 51
323.130102
  0
LINE
  5
141D
100
AcDbEntity
  8
PCB-BOTT
100
AcDbLine
 10
81.8
 20
50.322009
 30
0.0
 11
81.8
 21
48.737991
 31
0.0
  0
LINE
  5
141E
100
AcDbEntity
  8
PCB-BOTT
100
AcDbLine
 10
83.3
 20
50.322009
 30
0.0
 11
83.3
 21
48.737991
 31
0.0
  0
LINE
  5
141F
100
AcDbEntity
  8
PCB-BOTT
100
AcDbLine
 10
83.3
 20
47.782009
 30
0.0
 11
83.3
 21
45.72
 31
0.0
  0
LINE
  5
1420
100
AcDbEntity
  8
PCB-BOTT
100
AcDbLine
 10
81.8
 20
47.782009
 30
0.0
 11
81.8
 21
45.72
 31
0.0
  0
CIRCLE
  5
1421
100
AcDbEntity
  8
PCB-BOTT
100
AcDbCircle
 10
71.12
 20
66.04
 30
0.0
 40
0.15
  0
LINE
  5
1424
100
AcDbEntity
  8
PCB-TOP
100
AcDbLine
 10
65.896037
 20
41.246682
 30
0.0
 11
68.144641
 21
43.892219
 31
0.0
  0
LINE
  5
1425
100
AcDbEntity
  8
PCB-TOP
100
AcDbLine
 10
67.191705
 20
40.490876
 30
0.0
 11
70.286898
 21
43.891921
 31
0.0
  0
LWPOLYLINE
  5
1426
100
AcDbEntity
  8
PCB-TOP
  6
CONTINUOUS
100
AcDbPolyline
 90
        3
 70
     0
 43
0.0
 10
69.4385
 20
45.414476
 10
69.4385
 20
46.5205
 42
-0.195374
 10
69.735
 20
47.250337
  0
LINE
  5
142D
100
AcDbEntity
  8
PCB-BOTT
100
AcDbLine
 10
79.415163
 20
50.576393
 30
0.0
 11
76.443692
 21
52.051114
 31
0.0
  0
LWPOLYLINE
  5
142E
100
AcDbEntity
  8
PCB-BOTT
  6
CONTINUOUS
100
AcDbPolyline
 90
        4
 70
     0
 43
0.0
 10
76.443692
 20
52.051114
 42
-0.747436
 10
74.5185
 20
52.6195
 10
74.5185
 20
54.2205
 42
-0.242215
 10
74.95674
 20
55.072076
  0
LWPOLYLINE
  5
1430
100
AcDbEntity
  8
HOLE
100
AcDbPolyline
 90
        4
 70
     1
 43
0.0
 10
58.42
 20
73.66
 10
109.22
 20
73.66
 10
109.22
 20
29.845
 10
58.42
 20
29.845
  0
CIRCLE
  5
1437
100
AcDbEntity
  8
HOLE
100
AcDbCircle
 10
66.207399
 20
23.454334
 30
0.0
 40
0.3
  0
CIRCLE
  5
1438
100
AcDbEntity
  8
HOLE
100
AcDbCircle
 10
69.382399
 20
23.454334
 30
0.0
 40
0.45
  0
CIRCLE
  5
143A
100
AcDbEntity
  8
HOLE
100
AcDbCircle
 10
68.112399
 20
23.454334
 30
0.0
 40
0.35
  0
CIRCLE
  5
143B
100
AcDbEntity
  8
HOLE
100
AcDbCircle
 10
102.87
 20
45.72
 30
0.0
 40
0.45
  0
CIRCLE
  5
143C
100
AcDbEntity
  8
HOLE
100
AcDbCircle
 10
102.87
 20
48.26
 30
0.0
 40
0.45
  0
CIRCLE
  5
143D
100
AcDbEntity
  8
HOLE
100
AcDbCircle
 10
102.87
 20
50.8
 30
0.0
 40
0.45
  0
CIRCLE
  5
143E
100
AcDbEntity
  8
HOLE
100
AcDbCircle
 10
102.87
 20
53.34
 30
0.0
 40
0.45
  0
CIRCLE
  5
143F
100
AcDbEntity
  8
HOLE
100
AcDbCircle
 10
63.5
 20
50.8
 30
0.0
 40
0.45
  0
CIRCLE
  5
1440
100
AcDbEntity
  8
HOLE
100
AcDbCircle
 10
63.5
 20
48.26
 30
0.0
 40
0.45
  0
CIRCLE
  5
1441
100
AcDbEntity
  8
HOLE
100
AcDbCircle
 10
66.04
 20
34.925
 30
0.0
 40
0.35
  0
CIRCLE
  5
1442
100
AcDbEntity
  8
HOLE
100
AcDbCircle
 10
68.58
 20
34.925
 30
0.0
 40
0.35
  0
CIRCLE
  5
1443
100
AcDbEntity
  8
HOLE
100
AcDbCircle
 10
71.12
 20
34.925
 30
0.0
 40
0.35
  0
CIRCLE
  5
1444
100
AcDbEntity
  8
HOLE
100
AcDbCircle
 10
73.66
 20
34.925
 30
0.0
 40
0.35
  0
CIRCLE
  5
1445
100
AcDbEntity
  8
HOLE
100
AcDbCircle
 10
76.2
 20
34.925
 30
0.0
 40
0.35
  0
CIRCLE
  5
1446
100
AcDbEntity
  8
HOLE
100
AcDbCircle
 10
78.74
 20
34.925
 30
0.0
 40
0.35
  0
CIRCLE
  5
1447
100
AcDbEntity
  8
HOLE
100
AcDbCircle
 10
83.82
 20
34.925
 30
0.0
 40
0.35
  0
CIRCLE
  5
1448
100
AcDbEntity
  8
HOLE
100
AcDbCircle
 10
83.82
 20
40.005
 30
0.0
 40
0.35
  0
CIRCLE
  5
1449
100
AcDbEntity
  8
HOLE
100
AcDbCircle
 10
78.74
 20
40.005
 30
0.0
 40
0.35
  0
CIRCLE
  5
144A
100
AcDbEntity
  8
HOLE
100
AcDbCircle
 10
76.2
 20
40.005
 30
0.0
 40
0.35
  0
CIRCLE
  5
144B
100
AcDbEntity
  8
HOLE
100
AcDbCircle
 10
73.66
 20
40.005
 30
0.0
 40
0.35
  0
CIRCLE
  5
144C
100
AcDbEntity
  8
HOLE
100
AcDbCircle
 10
71.12
 20
40.005
 30
0.0
 40
0.35
  0
CIRCLE
  5
144D
100
AcDbEntity
  8
HOLE
100
AcDbCircle
 10
68.58
 20
40.005
 30
0.0
 40
0.35
  0
CIRCLE
  5
144E
100
AcDbEntity
  8
HOLE
100
AcDbCircle
 10
66.04
 20
40.005
 30
0.0
 40
0.35
  0
CIRCLE
  5
1450
100
AcDbEntity
  8
HOLE
100
AcDbCircle
 10
88.9
 20
39.37
 30
0.0
 40
0.35
  0
CIRCLE
  5
1451
100
AcDbEntity
  8
HOLE
100
AcDbCircle
 10
93.98
 20
40.005
 30
0.0
 40
0.35
  0
CIRCLE
  5
1452
100
AcDbEntity
  8
HOLE
100
AcDbCircle
 10
93.98
 20
34.925
 30
0.0
 40
0.35
  0
CIRCLE
  5
1453
100
AcDbEntity
  8
HOLE
100
AcDbCircle
 10
88.9
 20
36.83
 30
0.0
 40
0.35
  0
CIRCLE
  5
1454
100
AcDbEntity
  8
HOLE
100
AcDbCircle
 10
93.98
 20
60.96
 30
0.0
 40
0.35
  0
CIRCLE
  5
1455
100
AcDbEntity
  8
HOLE
100
AcDbCircle
 10
93.98
 20
66.04
 30
0.0
 40
0.35
  0
CIRCLE
  5
1456
100
AcDbEntity
  8
HOLE
100
AcDbCircle
 10
86.36
 20
60.325
 30
0.0
 40
0.35
  0
CIRCLE
  5
1457
100
AcDbEntity
  8
HOLE
100
AcDbCircle
 10
83.82
 20
60.325
 30
0.0
 40
0.35
  0
CIRCLE
  5
1458
100
AcDbEntity
  8
HOLE
100
AcDbCircle
 10
84.455
 20
50.8
 30
0.0
 40
0.35
  0
CIRCLE
  5
1459
100
AcDbEntity
  8
HOLE
100
AcDbCircle
 10
84.455
 20
48.26
 30
0.0
 40
0.35
  0
CIRCLE
  5
145A
100
AcDbEntity
  8
HOLE
100
AcDbCircle
 10
80.645
 20
48.26
 30
0.0
 40
0.35
  0
CIRCLE
  5
145B
100
AcDbEntity
  8
HOLE
100
AcDbCircle
 10
80.645
 20
50.8
 30
0.0
 40
0.35
  0
CIRCLE
  5
145C
100
AcDbEntity
  8
HOLE
100
AcDbCircle
 10
76.2
 20
60.96
 30
0.0
 40
0.35
  0
CIRCLE
  5
145D
100
AcDbEntity
  8
HOLE
100
AcDbCircle
 10
76.2
 20
66.04
 30
0.0
 40
0.35
  0
CIRCLE
  5
145E
100
AcDbEntity
  8
HOLE
100
AcDbCircle
 10
73.66
 20
66.04
 30
0.0
 40
0.35
  0
CIRCLE
  5
145F
100
AcDbEntity
  8
HOLE
100
AcDbCircle
 10
73.66
 20
60.96
 30
0.0
 40
0.35
  0
CIRCLE
  5
1460
100
AcDbEntity
  8
HOLE
100
AcDbCircle
 10
71.12
 20
60.96
 30
0.0
 40
0.35
  0
CIRCLE
  5
1461
100
AcDbEntity
  8
HOLE
100
AcDbCircle
 10
71.12
 20
66.04
 30
0.0
 40
0.35
  0
CIRCLE
  5
1462
100
AcDbEntity
  8
HOLE
100
AcDbCircle
 10
68.58
 20
66.04
 30
0.0
 40
0.35
  0
CIRCLE
  5
1463
100
AcDbEntity
  8
HOLE
100
AcDbCircle
 10
68.58
 20
60.96
 30
0.0
 40
0.35
  0
CIRCLE
  5
1464
100
AcDbEntity
  8
HOLE
100
AcDbCircle
 10
66.04
 20
60.96
 30
0.0
 40
0.35
  0
CIRCLE
  5
1465
100
AcDbEntity
  8
HOLE
100
AcDbCircle
 10
66.04
 20
66.04
 30
0.0
 40
0.35
  0
CIRCLE
  5
1466
100
AcDbEntity
  8
HOLE
100
AcDbCircle
 10
96.52
 20
45.72
 30
0.0
 40
0.3
  0
CIRCLE
  5
1467
100
AcDbEntity
  8
HOLE
100
AcDbCircle
 10
93.98
 20
45.72
 30
0.0
 40
0.3
  0
CIRCLE
  5
1468
100
AcDbEntity
  8
HOLE
100
AcDbCircle
 10
91.44
 20
45.72
 30
0.0
 40
0.3
  0
CIRCLE
  5
1469
100
AcDbEntity
  8
HOLE
100
AcDbCircle
 10
88.9
 20
45.72
 30
0.0
 40
0.3
  0
CIRCLE
  5
146A
100
AcDbEntity
  8
HOLE
100
AcDbCircle
 10
88.9
 20
53.42
 30
0.0
 40
0.3
  0
CIRCLE
  5
146B
100
AcDbEntity
  8
HOLE
100
AcDbCircle
 10
91.44
 20
53.42
 30
0.0
 40
0.3
  0
CIRCLE
  5
146C
100
AcDbEntity
  8
HOLE
100
AcDbCircle
 10
93.98
 20
53.42
 30
0.0
 40
0.3
  0
CIRCLE
  5
146D
100
AcDbEntity
  8
HOLE
100
AcDbCircle
 10
96.52
 20
53.42
 30
0.0
 40
0.3
  0
CIRCLE
  5
146E
100
AcDbEntity
  8
HOLE
100
AcDbCircle
 10
75.565
 20
45.72
 30
0.0
 40
0.3
  0
CIRCLE
  5
146F
100
AcDbEntity
  8
HOLE
100
AcDbCircle
 10
75.565
 20
53.42
 30
0.0
 40
0.3
  0
CIRCLE
  5
1470
100
AcDbEntity
  8
HOLE
100
AcDbCircle
 10
73.025
 20
53.42
 30
0.0
 40
0.3
  0
CIRCLE
  5
1471
100
AcDbEntity
  8
HOLE
100
AcDbCircle
 10
70.485
 20
53.42
 30
0.0
 40
0.3
  0
CIRCLE
  5
1472
100
AcDbEntity
  8
HOLE
100
AcDbCircle
 10
67.945
 20
53.42
 30
0.0
 40
0.3
  0
CIRCLE
  5
1473
100
AcDbEntity
  8
HOLE
100
AcDbCircle
 10
67.945
 20
45.72
 30
0.0
 40
0.3
  0
CIRCLE
  5
1474
100
AcDbEntity
  8
HOLE
100
AcDbCircle
 10
70.485
 20
45.72
 30
0.0
 40
0.3
  0
CIRCLE
  5
1475
100
AcDbEntity
  8
HOLE
100
AcDbCircle
 10
73.025
 20
45.72
 30
0.0
 40
0.3
  0
CIRCLE
  5
1476
100
AcDbEntity
  8
HOLE
100
AcDbCircle
 10
72.39
 20
23.495
 30
0.0
 40
1.55
  0
CIRCLE
  5
1477
100
AcDbEntity
  8
HOLE
100
AcDbCircle
 10
104.14
 20
34.925
 30
0.0
 40
1.55
  0
CIRCLE
  5
1478
100
AcDbEntity
  8
HOLE
100
AcDbCircle
 10
104.14
 20
69.85
 30
0.0
 40
1.55
  0
CIRCLE
  5
1479
100
AcDbEntity
  8
HOLE
100
AcDbCircle
 10
61.595
 20
69.85
 30
0.0
 40
1.55
  0
CIRCLE
  5
147A
100
AcDbEntity
  8
HOLE
100
AcDbCircle
 10
60.96
 20
34.925
 30
0.0
 40
1.55
  0
LINE
  5
147C
100
AcDbEntity
  8
PCB-TOP
100
AcDbLine
 10
68.991026
 20
44.888012
 30
0.0
 11
69.4385
 21
45.414476
 31
0.0
  0
LINE
  5
147D
100
AcDbEntity
  8
PCB-TOP
100
AcDbLine
 10
89.240664
 20
43.93
 30
0.0
 11
89.604274
 21
43.93
 31
0.0
  0
ENDSEC
  0
SECTION
  2
OBJECTS
  0
DICTIONARY
  5
C
100
AcDbDictionary
  3
ACAD_GROUP
350
D
  3
ACAD_MLINESTYLE
350
1B
  0
DICTIONARY
  5
D
102
{ACAD_REACTORS
330
C
102
}
100
AcDbDictionary
  3
*A1
350
B40
  3
*A2
350
BAA
  3
*A3
350
F36
  3
*A4
350
F37
  3
*A5
350
F38
  3
*A6
350
F39
  3
*A7
350
F40
  3
*A8
350
F41
  3
*A9
350
F42
  3
*A10
350
F43
  3
*A11
350
F4A
  3
*A12
350
F4B
  3
*A13
350
BAB
  3
*A14
350
B41
  3
*A15
350
B53
  3
*A16
350
F4C
  3
*A17
350
F4D
  3
*A18
350
F54
  3
*A19
350
F55
  3
*A20
350
F56
  3
*A21
350
F57
  3
*A22
350
F5E
  3
*A23
350
F5F
  3
*A24
350
BAC
  3
*A25
350
F60
  3
*A26
350
F61
  3
*A27
350
B54
  3
*A28
350
F68
  3
*A29
350
F69
  3
*A30
350
F6A
  3
*A31
350
F6B
  3
*A32
350
F72
  3
*A33
350
F73
  3
*A34
350
F74
  3
*A35
350
B4A
  3
*A36
350
F75
  3
*A37
350
109F
  3
*A38
350
10A0
  3
*A39
350
B55
  3
*A40
350
10A1
  3
*A41
350
10A2
  3
*A42
350
10A3
  3
*A43
350
10A4
  3
*A44
350
10A5
  3
*A45
350
10A6
  3
*A46
350
BAD
  3
*A47
350
10A7
  3
*A48
350
10A8
  3
*A49
350
10A9
  3
*A50
350
10AA
  3
*A51
350
B56
  3
*A52
350
10AB
  3
*A53
350
10AC
  3
*A54
350
10AD
  3
*A55
350
10AE
  3
*A56
350
10AF
  3
*A57
350
BAE
  3
*A58
350
10B0
  3
*A59
350
10B1
  3
*A60
350
10B2
  3
*A61
350
10B3
  3
*A62
350
10B4
  3
*A63
350
B57
  3
*A64
350
10B5
  3
*A65
350
10B6
  3
*A66
350
10B7
  3
*A67
350
10B8
  3
*A68
350
BAF
  3
*A69
350
10B9
  3
*A70
350
10BA
  3
*A71
350
10BB
  3
*A72
350
10BC
  3
*A73
350
10BD
  3
*A74
350
10BE
  3
*A75
350
B58
  3
*A76
350
10BF
  3
*A77
350
10C0
  3
*A78
350
10C1
  3
*A79
350
BB0
  3
*A80
350
10C2
  3
*A81
350
10C3
  3
*A82
350
10C4
  3
*A83
350
10C5
  3
*A84
350
10C6
  3
*A85
350
10C7
  3
*A86
350
10C8
  3
*A87
350
B59
  3
*A88
350
10C9
  3
*A89
350
10CA
  3
*A90
350
BB1
  3
*A91
350
10CB
  3
*A92
350
10CC
  3
*A93
350
10CD
  3
*A94
350
10CE
  3
*A95
350
10CF
  3
*A96
350
10D0
  3
*A97
350
10D1
  3
*A98
350
10D2
  3
*A99
350
B5A
  3
*A100
350
10D3
  3
*A101
350
BB2
  3
*A102
350
10D4
  3
*A103
350
10D5
  3
*A104
350
10D6
  3
*A105
350
10D7
  3
*A106
350
10D8
  3
*A107
350
10D9
  3
*A108
350
10DA
  3
*A109
350
10DB
  3
*A110
350
10DC
  3
*A111
350
B5B
  3
*A112
350
B49
  3
*A113
350
BB3
  3
*A114
350
10DD
  3
*A115
350
10DE
  3
*A116
350
10DF
  3
*A117
350
10E0
  3
*A118
350
10E1
  3
*A119
350
10E2
  3
*A120
350
10E3
  3
*A121
350
10E4
  3
*A122
350
10E5
  3
*A123
350
10E6
  3
*A124
350
BB4
  3
*A125
350
B5C
  3
*A126
350
10E7
  3
*A127
350
10E8
  3
*A128
350
10E9
  3
*A129
350
10EA
  3
*A130
350
10EB
  3
*A131
350
10EC
  3
*A132
350
10ED
  3
*A133
350
10EE
  3
*A134
350
10EF
  3
*A135
350
BB5
  3
*A136
350
10F0
  3
*A137
350
B42
  3
*A138
350
B5D
  3
*A139
350
10F1
  3
*A140
350
10F2
  3
*A141
350
10F3
  3
*A142
350
10F4
  3
*A143
350
1193
  3
*A144
350
1194
  3
*A145
350
1195
  3
*A146
350
E69
  3
*A147
350
1196
  3
*A148
350
1197
  3
*A149
350
1198
  3
*A150
350
B5E
  3
*A151
350
119B
  3
*A152
350
119C
  3
*A153
350
119D
  3
*A154
350
119E
  3
*A155
350
119F
  3
*A156
350
11A0
  3
*A157
350
B4B
  3
*A158
350
11A1
  3
*A159
350
11A2
  3
*A160
350
B5F
  3
*A161
350
11A3
  3
*A162
350
11A4
  3
*A163
350
11A5
  3
*A164
350
11A6
  3
*A165
350
11A7
  3
*A166
350
11A8
  3
*A167
350
11A9
  3
*A168
350
E6A
  3
*A169
350
11AA
  3
*A170
350
11AB
  3
*A171
350
11AC
  3
*A172
350
B60
  3
*A173
350
11AD
  3
*A174
350
11AE
  3
*A175
350
11AF
  3
*A176
350
11B0
  3
*A177
350
11B1
  3
*A178
350
11B2
  3
*A179
350
E6B
  3
*A180
350
11B3
  3
*A181
350
11B4
  3
*A182
350
11B5
  3
*A183
350
11B6
  3
*A184
350
B61
  3
*A185
350
11B7
  3
*A186
350
11B8
  3
*A187
350
11B9
  3
*A188
350
11BA
  3
*A189
350
11BB
  3
*A190
350
E6C
  3
*A191
350
11BC
  3
*A192
350
11BD
  3
*A193
350
11BE
  3
*A194
350
11BF
  3
*A195
350
11C0
  3
*A196
350
B62
  3
*A197
350
11C1
  3
*A198
350
11C2
  3
*A199
350
11C3
  3
*A200
350
11C4
  3
*A201
350
E6D
  3
*A202
350
11C5
  3
*A203
350
11C6
  3
*A204
350
11C7
  3
*A205
350
11C8
  3
*A206
350
11C9
  3
*A207
350
11CA
  3
*A208
350
B63
  3
*A209
350
11CB
  3
*A210
350
11CC
  3
*A211
350
11CD
  3
*A212
350
E71
  3
*A213
350
11CE
  3
*A214
350
11CF
  3
*A215
350
11D0
  3
*A216
350
11D1
  3
*A217
350
11D2
  3
*A218
350
11D3
  3
*A219
350
11D4
  3
*A220
350
B64
  3
*A221
350
11D5
  3
*A222
350
11D6
  3
*A223
350
BA3
  3
*A224
350
E72
  3
*A225
350
11D7
  3
*A226
350
11D8
  3
*A227
350
11D9
  3
*A228
350
11DA
  3
*A229
350
11DB
  3
*A230
350
11DC
  3
*A231
350
11DD
  3
*A232
350
11DE
  3
*A233
350
B65
  3
*A234
350
11DF
  3
*A235
350
E76
  3
*A236
350
11E0
  3
*A237
350
11E1
  3
*A238
350
11E2
  3
*A239
350
11E3
  3
*A240
350
11E4
  3
*A241
350
11E5
  3
*A242
350
11E6
  3
*A243
350
11E7
  3
*A244
350
11E8
  3
*A245
350
B66
  3
*A246
350
E77
  3
*A247
350
1298
  3
*A248
350
1299
  3
*A249
350
129D
  3
*A250
350
129E
  3
*A251
350
12AE
  3
*A252
350
12AF
  3
*A253
350
12B0
  3
*A254
350
12B1
  3
*A255
350
1410
  3
*A256
350
1411
  3
*A257
350
E7B
  3
*A258
350
B43
  3
*A259
350
B67
  3
*A260
350
B68
  3
*A261
350
B69
  3
*A262
350
B6A
  3
*A263
350
B6B
  3
*A264
350
B6C
  3
*A265
350
B6D
  3
*A266
350
B6E
  3
*A267
350
B6F
  3
*A268
350
E7C
  3
*A269
350
B70
  3
*A270
350
B44
  3
*A271
350
B71
  3
*A272
350
B72
  3
*A273
350
B73
  3
*A274
350
B74
  3
*A275
350
B75
  3
*A276
350
B76
  3
*A277
350
B77
  3
*A278
350
B78
  3
*A279
350
B4C
  3
*A280
350
B79
  3
*A281
350
B7A
  3
*A282
350
B45
  3
*A283
350
B7B
  3
*A284
350
B7C
  3
*A285
350
B7D
  3
*A286
350
B7E
  3
*A287
350
B7F
  3
*A288
350
B80
  3
*A289
350
B81
  3
*A290
350
E80
  3
*A291
350
B82
  3
*A292
350
B83
  3
*A293
350
B84
  3
*A294
350
B46
  3
*A295
350
B85
  3
*A296
350
B86
  3
*A297
350
B87
  3
*A298
350
B88
  3
*A299
350
B89
  3
*A300
350
B8A
  3
*A301
350
E81
  3
*A302
350
B8B
  3
*A303
350
B8C
  3
*A304
350
B8D
  3
*A305
350
B8E
  3
*A306
350
B47
  3
*A307
350
B8F
  3
*A308
350
B90
  3
*A309
350
B91
  3
*A310
350
B92
  3
*A311
350
B93
  3
*A312
350
E85
  3
*A313
350
B94
  3
*A314
350
B95
  3
*A315
350
B96
  3
*A316
350
B97
  3
*A317
350
B98
  3
*A318
350
B48
  3
*A319
350
B99
  3
*A320
350
B9A
  3
*A321
350
B9B
  3
*A322
350
B9C
  3
*A323
350
E86
  3
*A324
350
B9D
  3
*A325
350
B9E
  3
*A326
350
B9F
  3
*A327
350
BA0
  3
*A328
350
BA1
  3
*A329
350
BA2
  3
*A330
350
BA4
  3
*A331
350
E8A
  3
*A332
350
E8B
  3
*A333
350
E8F
  3
*A334
350
E90
  3
*A335
350
E94
  3
*A336
350
E95
  3
*A337
350
B4D
  3
*A338
350
E99
  3
*A339
350
E9A
  3
*A340
350
E9E
  3
*A341
350
BA5
  3
*A342
350
E9F
  3
*A343
350
EA3
  3
*A344
350
EA4
  3
*A345
350
EA8
  3
*A346
350
EA9
  3
*A347
350
EAD
  3
*A348
350
EAE
  3
*A349
350
B4E
  3
*A350
350
EB2
  3
*A351
350
EB3
  3
*A352
350
BA6
  3
*A353
350
EB7
  3
*A354
350
EB8
  3
*A355
350
EBC
  3
*A356
350
EBD
  3
*A357
350
EC1
  3
*A358
350
EC2
  3
*A359
350
EC6
  3
*A360
350
EC7
  3
*A361
350
B4F
  3
*A362
350
F14
  3
*A363
350
BA7
  3
*A364
350
F15
  3
*A365
350
F16
  3
*A366
350
F17
  3
*A367
350
F18
  3
*A368
350
F19
  3
*A369
350
F1A
  3
*A370
350
F1B
  3
*A371
350
B50
  3
*A372
350
F1C
  3
*A373
350
F1D
  3
*A374
350
BA8
  3
*A375
350
F1E
  3
*A376
350
F1F
  3
*A377
350
F20
  3
*A378
350
F21
  3
*A379
350
F22
  3
*A380
350
F23
  3
*A381
350
F24
  3
*A382
350
F25
  3
*A383
350
B51
  3
*A384
350
F26
  3
*A385
350
BA9
  3
*A386
350
F27
  3
*A387
350
F28
  3
*A388
350
F29
  3
*A389
350
F2A
  3
*A390
350
F2B
  3
*A391
350
F2C
  3
*A392
350
F2D
  3
*A393
350
F2E
  3
*A394
350
F2F
  3
*A395
350
B52
  0
DICTIONARY
  5
1B
102
{ACAD_REACTORS
330
C
102
}
100
AcDbDictionary
  3
STANDARD
350
1C
  0
GROUP
  5
B40
102
{ACAD_REACTORS
330
D
102
}
100
AcDbGroup
300

 70
     1
 71
     1
  0
GROUP
  5
BAA
102
{ACAD_REACTORS
330
D
102
}
100
AcDbGroup
300

 70
     1
 71
     1
  0
GROUP
  5
F36
102
{ACAD_REACTORS
330
D
102
}
100
AcDbGroup
300

 70
     1
 71
     1
340
F30
340
F31
340
F32
  0
GROUP
  5
F37
102
{ACAD_REACTORS
330
D
102
}
100
AcDbGroup
300

 70
     1
 71
     1
340
F30
340
F31
340
F32
  0
GROUP
  5
F38
102
{ACAD_REACTORS
330
D
102
}
100
AcDbGroup
300

 70
     1
 71
     1
340
F33
340
F34
340
F35
  0
GROUP
  5
F39
102
{ACAD_REACTORS
330
D
102
}
100
AcDbGroup
300

 70
     1
 71
     1
340
F33
340
F34
340
F35
  0
GROUP
  5
F40
102
{ACAD_REACTORS
330
D
102
}
100
AcDbGroup
300

 70
     1
 71
     1
340
F3A
340
F3B
340
F3C
  0
GROUP
  5
F41
102
{ACAD_REACTORS
330
D
102
}
100
AcDbGroup
300

 70
     1
 71
     1
340
F3A
340
F3B
340
F3C
  0
GROUP
  5
F42
102
{ACAD_REACTORS
330
D
102
}
100
AcDbGroup
300

 70
     1
 71
     1
340
F3D
340
F3E
340
F3F
  0
GROUP
  5
F43
102
{ACAD_REACTORS
330
D
102
}
100
AcDbGroup
300

 70
     1
 71
     1
340
F3D
340
F3E
340
F3F
  0
GROUP
  5
F4A
102
{ACAD_REACTORS
330
D
102
}
100
AcDbGroup
300

 70
     1
 71
     1
340
F47
340
F48
340
F49
  0
GROUP
  5
F4B
102
{ACAD_REACTORS
330
D
102
}
100
AcDbGroup
300

 70
     1
 71
     1
340
F47
340
F48
340
F49
  0
GROUP
  5
BAB
102
{ACAD_REACTORS
330
D
102
}
100
AcDbGroup
300

 70
     1
 71
     1
  0
GROUP
  5
B41
102
{ACAD_REACTORS
330
D
102
}
100
AcDbGroup
300

 70
     1
 71
     1
  0
GROUP
  5
B53
102
{ACAD_REACTORS
330
D
102
}
100
AcDbGroup
300

 70
     1
 71
     1
  0
GROUP
  5
F4C
102
{ACAD_REACTORS
330
D
102
}
100
AcDbGroup
300

 70
     1
 71
     1
340
F44
340
F45
340
F46
  0
GROUP
  5
F4D
102
{ACAD_REACTORS
330
D
102
}
100
AcDbGroup
300

 70
     1
 71
     1
340
F44
340
F45
340
F46
  0
GROUP
  5
F54
102
{ACAD_REACTORS
330
D
102
}
100
AcDbGroup
300

 70
     1
 71
     1
340
F4E
340
F4F
340
F50
  0
GROUP
  5
F55
102
{ACAD_REACTORS
330
D
102
}
100
AcDbGroup
300

 70
     1
 71
     1
340
F4E
340
F4F
340
F50
  0
GROUP
  5
F56
102
{ACAD_REACTORS
330
D
102
}
100
AcDbGroup
300

 70
     1
 71
     1
340
F51
340
F52
340
F53
  0
GROUP
  5
F57
102
{ACAD_REACTORS
330
D
102
}
100
AcDbGroup
300

 70
     1
 71
     1
340
F51
340
F52
340
F53
  0
GROUP
  5
F5E
102
{ACAD_REACTORS
330
D
102
}
100
AcDbGroup
300

 70
     1
 71
     1
340
F58
340
F59
340
F5A
  0
GROUP
  5
F5F
102
{ACAD_REACTORS
330
D
102
}
100
AcDbGroup
300

 70
     1
 71
     1
340
F58
340
F59
340
F5A
  0
GROUP
  5
BAC
102
{ACAD_REACTORS
330
D
102
}
100
AcDbGroup
300

 70
     1
 71
     1
  0
GROUP
  5
F60
102
{ACAD_REACTORS
330
D
102
}
100
AcDbGroup
300

 70
     1
 71
     1
340
F5B
340
F5C
340
F5D
  0
GROUP
  5
F61
102
{ACAD_REACTORS
330
D
102
}
100
AcDbGroup
300

 70
     1
 71
     1
340
F5B
340
F5C
340
F5D
  0
GROUP
  5
B54
102
{ACAD_REACTORS
330
D
102
}
100
AcDbGroup
300

 70
     1
 71
     1
  0
GROUP
  5
F68
102
{ACAD_REACTORS
330
D
102
}
100
AcDbGroup
300

 70
     1
 71
     1
340
F62
340
F63
340
F64
  0
GROUP
  5
F69
102
{ACAD_REACTORS
330
D
102
}
100
AcDbGroup
300

 70
     1
 71
     1
340
F62
340
F63
340
F64
  0
GROUP
  5
F6A
102
{ACAD_REACTORS
330
D
102
}
100
AcDbGroup
300

 70
     1
 71
     1
340
F65
340
F66
340
F67
  0
GROUP
  5
F6B
102
{ACAD_REACTORS
330
D
102
}
100
AcDbGroup
300

 70
     1
 71
     1
340
F65
340
F66
340
F67
  0
GROUP
  5
F72
102
{ACAD_REACTORS
330
D
102
}
100
AcDbGroup
300

 70
     1
 71
     1
340
F6C
340
F6D
340
F6E
  0
GROUP
  5
F73
102
{ACAD_REACTORS
330
D
102
}
100
AcDbGroup
300

 70
     1
 71
     1
340
F6C
340
F6D
340
F6E
  0
GROUP
  5
F74
102
{ACAD_REACTORS
330
D
102
}
100
AcDbGroup
300

 70
     1
 71
     1
340
F6F
340
F70
340
F71
  0
GROUP
  5
B4A
102
{ACAD_REACTORS
330
D
102
}
100
AcDbGroup
300

 70
     1
 71
     1
  0
GROUP
  5
F75
102
{ACAD_REACTORS
330
D
102
}
100
AcDbGroup
300

 70
     1
 71
     1
340
F6F
340
F70
340
F71
  0
GROUP
  5
109F
102
{ACAD_REACTORS
330
D
102
}
100
AcDbGroup
300

 70
     1
 71
     1
  0
GROUP
  5
10A0
102
{ACAD_REACTORS
330
D
102
}
100
AcDbGroup
300

 70
     1
 71
     1
  0
GROUP
  5
B55
102
{ACAD_REACTORS
330
D
102
}
100
AcDbGroup
300

 70
     1
 71
     1
  0
GROUP
  5
10A1
102
{ACAD_REACTORS
330
D
102
}
100
AcDbGroup
300

 70
     1
 71
     1
  0
GROUP
  5
10A2
102
{ACAD_REACTORS
330
D
102
}
100
AcDbGroup
300

 70
     1
 71
     1
  0
GROUP
  5
10A3
102
{ACAD_REACTORS
330
D
102
}
100
AcDbGroup
300

 70
     1
 71
     1
  0
GROUP
  5
10A4
102
{ACAD_REACTORS
330
D
102
}
100
AcDbGroup
300

 70
     1
 71
     1
  0
GROUP
  5
10A5
102
{ACAD_REACTORS
330
D
102
}
100
AcDbGroup
300

 70
     1
 71
     1
  0
GROUP
  5
10A6
102
{ACAD_REACTORS
330
D
102
}
100
AcDbGroup
300

 70
     1
 71
     1
  0
GROUP
  5
BAD
102
{ACAD_REACTORS
330
D
102
}
100
AcDbGroup
300

 70
     1
 71
     1
  0
GROUP
  5
10A7
102
{ACAD_REACTORS
330
D
102
}
100
AcDbGroup
300

 70
     1
 71
     1
  0
GROUP
  5
10A8
102
{ACAD_REACTORS
330
D
102
}
100
AcDbGroup
300

 70
     1
 71
     1
  0
GROUP
  5
10A9
102
{ACAD_REACTORS
330
D
102
}
100
AcDbGroup
300

 70
     1
 71
     1
  0
GROUP
  5
10AA
102
{ACAD_REACTORS
330
D
102
}
100
AcDbGroup
300

 70
     1
 71
     1
  0
GROUP
  5
B56
102
{ACAD_REACTORS
330
D
102
}
100
AcDbGroup
300

 70
     1
 71
     1
  0
GROUP
  5
10AB
102
{ACAD_REACTORS
330
D
102
}
100
AcDbGroup
300

 70
     1
 71
     1
  0
GROUP
  5
10AC
102
{ACAD_REACTORS
330
D
102
}
100
AcDbGroup
300

 70
     1
 71
     1
  0
GROUP
  5
10AD
102
{ACAD_REACTORS
330
D
102
}
100
AcDbGroup
300

 70
     1
 71
     1
  0
GROUP
  5
10AE
102
{ACAD_REACTORS
330
D
102
}
100
AcDbGroup
300

 70
     1
 71
     1
  0
GROUP
  5
10AF
102
{ACAD_REACTORS
330
D
102
}
100
AcDbGroup
300

 70
     1
 71
     1
  0
GROUP
  5
BAE
102
{ACAD_REACTORS
330
D
102
}
100
AcDbGroup
300

 70
     1
 71
     1
  0
GROUP
  5
10B0
102
{ACAD_REACTORS
330
D
102
}
100
AcDbGroup
300

 70
     1
 71
     1
  0
GROUP
  5
10B1
102
{ACAD_REACTORS
330
D
102
}
100
AcDbGroup
300

 70
     1
 71
     1
  0
GROUP
  5
10B2
102
{ACAD_REACTORS
330
D
102
}
100
AcDbGroup
300

 70
     1
 71
     1
  0
GROUP
  5
10B3
102
{ACAD_REACTORS
330
D
102
}
100
AcDbGroup
300

 70
     1
 71
     1
  0
GROUP
  5
10B4
102
{ACAD_REACTORS
330
D
102
}
100
AcDbGroup
300

 70
     1
 71
     1
  0
GROUP
  5
B57
102
{ACAD_REACTORS
330
D
102
}
100
AcDbGroup
300

 70
     1
 71
     1
  0
GROUP
  5
10B5
102
{ACAD_REACTORS
330
D
102
}
100
AcDbGroup
300

 70
     1
 71
     1
  0
GROUP
  5
10B6
102
{ACAD_REACTORS
330
D
102
}
100
AcDbGroup
300

 70
     1
 71
     1
  0
GROUP
  5
10B7
102
{ACAD_REACTORS
330
D
102
}
100
AcDbGroup
300

 70
     1
 71
     1
  0
GROUP
  5
10B8
102
{ACAD_REACTORS
330
D
102
}
100
AcDbGroup
300

 70
     1
 71
     1
  0
GROUP
  5
BAF
102
{ACAD_REACTORS
330
D
102
}
100
AcDbGroup
300

 70
     1
 71
     1
  0
GROUP
  5
10B9
102
{ACAD_REACTORS
330
D
102
}
100
AcDbGroup
300

 70
     1
 71
     1
  0
GROUP
  5
10BA
102
{ACAD_REACTORS
330
D
102
}
100
AcDbGroup
300

 70
     1
 71
     1
  0
GROUP
  5
10BB
102
{ACAD_REACTORS
330
D
102
}
100
AcDbGroup
300

 70
     1
 71
     1
  0
GROUP
  5
10BC
102
{ACAD_REACTORS
330
D
102
}
100
AcDbGroup
300

 70
     1
 71
     1
  0
GROUP
  5
10BD
102
{ACAD_REACTORS
330
D
102
}
100
AcDbGroup
300

 70
     1
 71
     1
  0
GROUP
  5
10BE
102
{ACAD_REACTORS
330
D
102
}
100
AcDbGroup
300

 70
     1
 71
     1
  0
GROUP
  5
B58
102
{ACAD_REACTORS
330
D
102
}
100
AcDbGroup
300

 70
     1
 71
     1
  0
GROUP
  5
10BF
102
{ACAD_REACTORS
330
D
102
}
100
AcDbGroup
300

 70
     1
 71
     1
  0
GROUP
  5
10C0
102
{ACAD_REACTORS
330
D
102
}
100
AcDbGroup
300

 70
     1
 71
     1
  0
GROUP
  5
10C1
102
{ACAD_REACTORS
330
D
102
}
100
AcDbGroup
300

 70
     1
 71
     1
  0
GROUP
  5
BB0
102
{ACAD_REACTORS
330
D
102
}
100
AcDbGroup
300

 70
     1
 71
     1
  0
GROUP
  5
10C2
102
{ACAD_REACTORS
330
D
102
}
100
AcDbGroup
300

 70
     1
 71
     1
  0
GROUP
  5
10C3
102
{ACAD_REACTORS
330
D
102
}
100
AcDbGroup
300

 70
     1
 71
     1
  0
GROUP
  5
10C4
102
{ACAD_REACTORS
330
D
102
}
100
AcDbGroup
300

 70
     1
 71
     1
  0
GROUP
  5
10C5
102
{ACAD_REACTORS
330
D
102
}
100
AcDbGroup
300

 70
     1
 71
     1
  0
GROUP
  5
10C6
102
{ACAD_REACTORS
330
D
102
}
100
AcDbGroup
300

 70
     1
 71
     1
  0
GROUP
  5
10C7
102
{ACAD_REACTORS
330
D
102
}
100
AcDbGroup
300

 70
     1
 71
     1
  0
GROUP
  5
10C8
102
{ACAD_REACTORS
330
D
102
}
100
AcDbGroup
300

 70
     1
 71
     1
  0
GROUP
  5
B59
102
{ACAD_REACTORS
330
D
102
}
100
AcDbGroup
300

 70
     1
 71
     1
  0
GROUP
  5
10C9
102
{ACAD_REACTORS
330
D
102
}
100
AcDbGroup
300

 70
     1
 71
     1
  0
GROUP
  5
10CA
102
{ACAD_REACTORS
330
D
102
}
100
AcDbGroup
300

 70
     1
 71
     1
  0
GROUP
  5
BB1
102
{ACAD_REACTORS
330
D
102
}
100
AcDbGroup
300

 70
     1
 71
     1
  0
GROUP
  5
10CB
102
{ACAD_REACTORS
330
D
102
}
100
AcDbGroup
300

 70
     1
 71
     1
  0
GROUP
  5
10CC
102
{ACAD_REACTORS
330
D
102
}
100
AcDbGroup
300

 70
     1
 71
     1
  0
GROUP
  5
10CD
102
{ACAD_REACTORS
330
D
102
}
100
AcDbGroup
300

 70
     1
 71
     1
  0
GROUP
  5
10CE
102
{ACAD_REACTORS
330
D
102
}
100
AcDbGroup
300

 70
     1
 71
     1
  0
GROUP
  5
10CF
102
{ACAD_REACTORS
330
D
102
}
100
AcDbGroup
300

 70
     1
 71
     1
  0
GROUP
  5
10D0
102
{ACAD_REACTORS
330
D
102
}
100
AcDbGroup
300

 70
     1
 71
     1
  0
GROUP
  5
10D1
102
{ACAD_REACTORS
330
D
102
}
100
AcDbGroup
300

 70
     1
 71
     1
  0
GROUP
  5
10D2
102
{ACAD_REACTORS
330
D
102
}
100
AcDbGroup
300

 70
     1
 71
     1
  0
GROUP
  5
B5A
102
{ACAD_REACTORS
330
D
102
}
100
AcDbGroup
300

 70
     1
 71
     1
  0
GROUP
  5
10D3
102
{ACAD_REACTORS
330
D
102
}
100
AcDbGroup
300

 70
     1
 71
     1
  0
GROUP
  5
BB2
102
{ACAD_REACTORS
330
D
102
}
100
AcDbGroup
300

 70
     1
 71
     1
  0
GROUP
  5
10D4
102
{ACAD_REACTORS
330
D
102
}
100
AcDbGroup
300

 70
     1
 71
     1
  0
GROUP
  5
10D5
102
{ACAD_REACTORS
330
D
102
}
100
AcDbGroup
300

 70
     1
 71
     1
  0
GROUP
  5
10D6
102
{ACAD_REACTORS
330
D
102
}
100
AcDbGroup
300

 70
     1
 71
     1
  0
GROUP
  5
10D7
102
{ACAD_REACTORS
330
D
102
}
100
AcDbGroup
300

 70
     1
 71
     1
  0
GROUP
  5
10D8
102
{ACAD_REACTORS
330
D
102
}
100
AcDbGroup
300

 70
     1
 71
     1
  0
GROUP
  5
10D9
102
{ACAD_REACTORS
330
D
102
}
100
AcDbGroup
300

 70
     1
 71
     1
  0
GROUP
  5
10DA
102
{ACAD_REACTORS
330
D
102
}
100
AcDbGroup
300

 70
     1
 71
     1
  0
GROUP
  5
10DB
102
{ACAD_REACTORS
330
D
102
}
100
AcDbGroup
300

 70
     1
 71
     1
  0
GROUP
  5
10DC
102
{ACAD_REACTORS
330
D
102
}
100
AcDbGroup
300

 70
     1
 71
     1
  0
GROUP
  5
B5B
102
{ACAD_REACTORS
330
D
102
}
100
AcDbGroup
300

 70
     1
 71
     1
  0
GROUP
  5
B49
102
{ACAD_REACTORS
330
D
102
}
100
AcDbGroup
300

 70
     1
 71
     1
  0
GROUP
  5
BB3
102
{ACAD_REACTORS
330
D
102
}
100
AcDbGroup
300

 70
     1
 71
     1
  0
GROUP
  5
10DD
102
{ACAD_REACTORS
330
D
102
}
100
AcDbGroup
300

 70
     1
 71
     1
  0
GROUP
  5
10DE
102
{ACAD_REACTORS
330
D
102
}
100
AcDbGroup
300

 70
     1
 71
     1
  0
GROUP
  5
10DF
102
{ACAD_REACTORS
330
D
102
}
100
AcDbGroup
300

 70
     1
 71
     1
  0
GROUP
  5
10E0
102
{ACAD_REACTORS
330
D
102
}
100
AcDbGroup
300

 70
     1
 71
     1
  0
GROUP
  5
10E1
102
{ACAD_REACTORS
330
D
102
}
100
AcDbGroup
300

 70
     1
 71
     1
  0
GROUP
  5
10E2
102
{ACAD_REACTORS
330
D
102
}
100
AcDbGroup
300

 70
     1
 71
     1
  0
GROUP
  5
10E3
102
{ACAD_REACTORS
330
D
102
}
100
AcDbGroup
300

 70
     1
 71
     1
  0
GROUP
  5
10E4
102
{ACAD_REACTORS
330
D
102
}
100
AcDbGroup
300

 70
     1
 71
     1
  0
GROUP
  5
10E5
102
{ACAD_REACTORS
330
D
102
}
100
AcDbGroup
300

 70
     1
 71
     1
  0
GROUP
  5
10E6
102
{ACAD_REACTORS
330
D
102
}
100
AcDbGroup
300

 70
     1
 71
     1
  0
GROUP
  5
BB4
102
{ACAD_REACTORS
330
D
102
}
100
AcDbGroup
300

 70
     1
 71
     1
  0
GROUP
  5
B5C
102
{ACAD_REACTORS
330
D
102
}
100
AcDbGroup
300

 70
     1
 71
     1
  0
GROUP
  5
10E7
102
{ACAD_REACTORS
330
D
102
}
100
AcDbGroup
300

 70
     1
 71
     1
  0
GROUP
  5
10E8
102
{ACAD_REACTORS
330
D
102
}
100
AcDbGroup
300

 70
     1
 71
     1
  0
GROUP
  5
10E9
102
{ACAD_REACTORS
330
D
102
}
100
AcDbGroup
300

 70
     1
 71
     1
  0
GROUP
  5
10EA
102
{ACAD_REACTORS
330
D
102
}
100
AcDbGroup
300

 70
     1
 71
     1
  0
GROUP
  5
10EB
102
{ACAD_REACTORS
330
D
102
}
100
AcDbGroup
300

 70
     1
 71
     1
  0
GROUP
  5
10EC
102
{ACAD_REACTORS
330
D
102
}
100
AcDbGroup
300

 70
     1
 71
     1
  0
GROUP
  5
10ED
102
{ACAD_REACTORS
330
D
102
}
100
AcDbGroup
300

 70
     1
 71
     1
  0
GROUP
  5
10EE
102
{ACAD_REACTORS
330
D
102
}
100
AcDbGroup
300

 70
     1
 71
     1
  0
GROUP
  5
10EF
102
{ACAD_REACTORS
330
D
102
}
100
AcDbGroup
300

 70
     1
 71
     1
  0
GROUP
  5
BB5
102
{ACAD_REACTORS
330
D
102
}
100
AcDbGroup
300

 70
     1
 71
     1
  0
GROUP
  5
10F0
102
{ACAD_REACTORS
330
D
102
}
100
AcDbGroup
300

 70
     1
 71
     1
  0
GROUP
  5
B42
102
{ACAD_REACTORS
330
D
102
}
100
AcDbGroup
300

 70
     1
 71
     1
  0
GROUP
  5
B5D
102
{ACAD_REACTORS
330
D
102
}
100
AcDbGroup
300

 70
     1
 71
     1
  0
GROUP
  5
10F1
102
{ACAD_REACTORS
330
D
102
}
100
AcDbGroup
300

 70
     1
 71
     1
  0
GROUP
  5
10F2
102
{ACAD_REACTORS
330
D
102
}
100
AcDbGroup
300

 70
     1
 71
     1
  0
GROUP
  5
10F3
102
{ACAD_REACTORS
330
D
102
}
100
AcDbGroup
300

 70
     1
 71
     1
  0
GROUP
  5
10F4
102
{ACAD_REACTORS
330
D
102
}
100
AcDbGroup
300

 70
     1
 71
     1
  0
GROUP
  5
1193
102
{ACAD_REACTORS
330
D
102
}
100
AcDbGroup
300

 70
     1
 71
     1
340
1147
340
1148
340
1149
  0
GROUP
  5
1194
102
{ACAD_REACTORS
330
D
102
}
100
AcDbGroup
300

 70
     1
 71
     1
340
1147
340
1148
340
1149
  0
GROUP
  5
1195
102
{ACAD_REACTORS
330
D
102
}
100
AcDbGroup
300

 70
     1
 71
     1
340
114A
340
114B
340
114C
  0
GROUP
  5
E69
102
{ACAD_REACTORS
330
D
102
}
100
AcDbGroup
300

 70
     1
 71
     1
340
C7E
340
C7D
340
C31
  0
GROUP
  5
1196
102
{ACAD_REACTORS
330
D
102
}
100
AcDbGroup
300

 70
     1
 71
     1
340
114A
340
114B
340
114C
  0
GROUP
  5
1197
102
{ACAD_REACTORS
330
D
102
}
100
AcDbGroup
300

 70
     1
 71
     1
  0
GROUP
  5
1198
102
{ACAD_REACTORS
330
D
102
}
100
AcDbGroup
300

 70
     1
 71
     1
  0
GROUP
  5
B5E
102
{ACAD_REACTORS
330
D
102
}
100
AcDbGroup
300

 70
     1
 71
     1
  0
GROUP
  5
119B
102
{ACAD_REACTORS
330
D
102
}
100
AcDbGroup
300

 70
     1
 71
     1
340
1153
340
1154
340
1155
  0
GROUP
  5
119C
102
{ACAD_REACTORS
330
D
102
}
100
AcDbGroup
300

 70
     1
 71
     1
340
1153
340
1154
340
1155
  0
GROUP
  5
119D
102
{ACAD_REACTORS
330
D
102
}
100
AcDbGroup
300

 70
     1
 71
     1
340
114D
340
114E
340
114F
  0
GROUP
  5
119E
102
{ACAD_REACTORS
330
D
102
}
100
AcDbGroup
300

 70
     1
 71
     1
340
114D
340
114E
340
114F
  0
GROUP
  5
119F
102
{ACAD_REACTORS
330
D
102
}
100
AcDbGroup
300

 70
     1
 71
     1
340
1150
340
1151
340
1152
  0
GROUP
  5
11A0
102
{ACAD_REACTORS
330
D
102
}
100
AcDbGroup
300

 70
     1
 71
     1
340
1150
340
1151
340
1152
  0
GROUP
  5
B4B
102
{ACAD_REACTORS
330
D
102
}
100
AcDbGroup
300

 70
     1
 71
     1
  0
GROUP
  5
11A1
102
{ACAD_REACTORS
330
D
102
}
100
AcDbGroup
300

 70
     1
 71
     1
340
113B
340
113C
340
113D
  0
GROUP
  5
11A2
102
{ACAD_REACTORS
330
D
102
}
100
AcDbGroup
300

 70
     1
 71
     1
340
113B
340
113C
340
113D
  0
GROUP
  5
B5F
102
{ACAD_REACTORS
330
D
102
}
100
AcDbGroup
300

 70
     1
 71
     1
  0
GROUP
  5
11A3
102
{ACAD_REACTORS
330
D
102
}
100
AcDbGroup
300

 70
     1
 71
     1
340
1144
340
1145
340
1146
  0
GROUP
  5
11A4
102
{ACAD_REACTORS
330
D
102
}
100
AcDbGroup
300

 70
     1
 71
     1
340
1144
340
1145
340
1146
  0
GROUP
  5
11A5
102
{ACAD_REACTORS
330
D
102
}
100
AcDbGroup
300

 70
     1
 71
     1
340
1141
340
1142
340
1143
  0
GROUP
  5
11A6
102
{ACAD_REACTORS
330
D
102
}
100
AcDbGroup
300

 70
     1
 71
     1
340
1141
340
1142
340
1143
  0
GROUP
  5
11A7
102
{ACAD_REACTORS
330
D
102
}
100
AcDbGroup
300

 70
     1
 71
     1
340
112F
340
1130
340
1131
  0
GROUP
  5
11A8
102
{ACAD_REACTORS
330
D
102
}
100
AcDbGroup
300

 70
     1
 71
     1
340
112F
340
1130
340
1131
  0
GROUP
  5
11A9
102
{ACAD_REACTORS
330
D
102
}
100
AcDbGroup
300

 70
     1
 71
     1
340
112C
340
112D
340
112E
  0
GROUP
  5
E6A
102
{ACAD_REACTORS
330
D
102
}
100
AcDbGroup
300

 70
     1
 71
     1
340
C32
340
C39
340
C35
340
C33
340
C37
340
C3F
340
C30
340
C34
340
C36
340
C38
340
C3D
340
C3B
340
C3A
340
C3C
340
C3E
340
C40
  0
GROUP
  5
11AA
102
{ACAD_REACTORS
330
D
102
}
100
AcDbGroup
300

 70
     1
 71
     1
340
112C
340
112D
340
112E
  0
GROUP
  5
11AB
102
{ACAD_REACTORS
330
D
102
}
100
AcDbGroup
300

 70
     1
 71
     1
340
1101
340
1102
340
1103
340
1104
340
1105
340
1106
340
1107
340
1108
340
1109
340
110A
340
110B
340
110C
340
110D
340
110E
340
110F
340
1110
  0
GROUP
  5
11AC
102
{ACAD_REACTORS
330
D
102
}
100
AcDbGroup
300

 70
     1
 71
     1
  0
GROUP
  5
B60
102
{ACAD_REACTORS
330
D
102
}
100
AcDbGroup
300

 70
     1
 71
     1
  0
GROUP
  5
11AD
102
{ACAD_REACTORS
330
D
102
}
100
AcDbGroup
300

 70
     1
 71
     1
  0
GROUP
  5
11AE
102
{ACAD_REACTORS
330
D
102
}
100
AcDbGroup
300

 70
     1
 71
     1
340
118A
340
118B
340
118C
  0
GROUP
  5
11AF
102
{ACAD_REACTORS
330
D
102
}
100
AcDbGroup
300

 70
     1
 71
     1
340
118A
340
118B
340
118C
  0
GROUP
  5
11B0
102
{ACAD_REACTORS
330
D
102
}
100
AcDbGroup
300

 70
     1
 71
     1
340
1187
340
1188
340
1189
  0
GROUP
  5
11B1
102
{ACAD_REACTORS
330
D
102
}
100
AcDbGroup
300

 70
     1
 71
     1
340
1187
340
1188
340
1189
  0
GROUP
  5
11B2
102
{ACAD_REACTORS
330
D
102
}
100
AcDbGroup
300

 70
     1
 71
     1
340
1190
340
1191
340
1192
  0
GROUP
  5
E6B
102
{ACAD_REACTORS
330
D
102
}
100
AcDbGroup
300

 70
     1
 71
     1
340
C4F
340
C41
340
C5C
340
C5B
340
C5A
340
C58
340
C57
340
C59
340
C56
340
C54
340
C53
340
C55
340
C52
340
C50
340
C51
340
C47
340
C45
340
C43
340
C44
340
C42
340
C48
340
C46
340
C4D
340
C49
340
C4B
340
C4C
340
C4A
340
C4E
  0
GROUP
  5
11B3
102
{ACAD_REACTORS
330
D
102
}
100
AcDbGroup
300

 70
     1
 71
     1
340
1190
340
1191
340
1192
  0
GROUP
  5
11B4
102
{ACAD_REACTORS
330
D
102
}
100
AcDbGroup
300

 70
     1
 71
     1
340
118D
340
118E
340
118F
  0
GROUP
  5
11B5
102
{ACAD_REACTORS
330
D
102
}
100
AcDbGroup
300

 70
     1
 71
     1
340
118D
340
118E
340
118F
  0
GROUP
  5
11B6
102
{ACAD_REACTORS
330
D
102
}
100
AcDbGroup
300

 70
     1
 71
     1
340
1184
340
1185
340
1186
  0
GROUP
  5
B61
102
{ACAD_REACTORS
330
D
102
}
100
AcDbGroup
300

 70
     1
 71
     1
  0
GROUP
  5
11B7
102
{ACAD_REACTORS
330
D
102
}
100
AcDbGroup
300

 70
     1
 71
     1
340
1184
340
1185
340
1186
  0
GROUP
  5
11B8
102
{ACAD_REACTORS
330
D
102
}
100
AcDbGroup
300

 70
     1
 71
     1
340
1181
340
1182
340
1183
  0
GROUP
  5
11B9
102
{ACAD_REACTORS
330
D
102
}
100
AcDbGroup
300

 70
     1
 71
     1
340
1181
340
1182
340
1183
  0
GROUP
  5
11BA
102
{ACAD_REACTORS
330
D
102
}
100
AcDbGroup
300

 70
     1
 71
     1
340
117E
340
117F
340
1180
  0
GROUP
  5
11BB
102
{ACAD_REACTORS
330
D
102
}
100
AcDbGroup
300

 70
     1
 71
     1
340
117E
340
117F
340
1180
  0
GROUP
  5
E6C
102
{ACAD_REACTORS
330
D
102
}
100
AcDbGroup
300

 70
     1
 71
     1
340
C5D
340
C6B
340
C63
340
C61
340
C5F
340
C60
340
C5E
340
C64
340
C62
340
C67
340
C65
340
C69
340
C68
340
C66
340
C6A
340
C6C
340
C6D
340
C7B
340
C73
340
C71
340
C6F
340
C70
340
C6E
340
C74
340
C72
340
C77
340
C75
340
C78
340
C76
340
C79
340
C7A
340
C7C
  0
GROUP
  5
11BC
102
{ACAD_REACTORS
330
D
102
}
100
AcDbGroup
300

 70
     1
 71
     1
340
117B
340
117C
340
117D
  0
GROUP
  5
11BD
102
{ACAD_REACTORS
330
D
102
}
100
AcDbGroup
300

 70
     1
 71
     1
340
117B
340
117C
340
117D
  0
GROUP
  5
11BE
102
{ACAD_REACTORS
330
D
102
}
100
AcDbGroup
300

 70
     1
 71
     1
340
1159
340
115A
340
115B
340
115C
340
115D
340
115E
340
115F
340
1160
340
1161
340
1162
340
1163
340
1164
340
1165
340
1166
340
1167
340
1168
  0
GROUP
  5
11BF
102
{ACAD_REACTORS
330
D
102
}
100
AcDbGroup
300

 70
     1
 71
     1
340
1178
340
1179
340
117A
  0
GROUP
  5
11C0
102
{ACAD_REACTORS
330
D
102
}
100
AcDbGroup
300

 70
     1
 71
     1
340
1178
340
1179
340
117A
  0
GROUP
  5
B62
102
{ACAD_REACTORS
330
D
102
}
100
AcDbGroup
300

 70
     3
 71
     1
  0
GROUP
  5
11C1
102
{ACAD_REACTORS
330
D
102
}
100
AcDbGroup
300

 70
     1
 71
     1
340
116C
340
116D
340
116E
  0
GROUP
  5
11C2
102
{ACAD_REACTORS
330
D
102
}
100
AcDbGroup
300

 70
     1
 71
     1
340
116C
340
116D
340
116E
  0
GROUP
  5
11C3
102
{ACAD_REACTORS
330
D
102
}
100
AcDbGroup
300

 70
     1
 71
     1
340
1169
340
116A
340
116B
  0
GROUP
  5
11C4
102
{ACAD_REACTORS
330
D
102
}
100
AcDbGroup
300

 70
     1
 71
     1
340
1169
340
116A
340
116B
  0
GROUP
  5
E6D
102
{ACAD_REACTORS
330
D
102
}
100
AcDbGroup
300

 70
     1
 71
     1
340
C7E
340
C7D
340
C31
  0
GROUP
  5
11C5
102
{ACAD_REACTORS
330
D
102
}
100
AcDbGroup
300

 70
     1
 71
     1
340
116F
340
1170
340
1171
  0
GROUP
  5
11C6
102
{ACAD_REACTORS
330
D
102
}
100
AcDbGroup
300

 70
     1
 71
     1
340
116F
340
1170
340
1171
  0
GROUP
  5
11C7
102
{ACAD_REACTORS
330
D
102
}
100
AcDbGroup
300

 70
     1
 71
     1
340
10FB
340
10FC
340
10FD
  0
GROUP
  5
11C8
102
{ACAD_REACTORS
330
D
102
}
100
AcDbGroup
300

 70
     1
 71
     1
340
10FB
340
10FC
340
10FD
  0
GROUP
  5
11C9
102
{ACAD_REACTORS
330
D
102
}
100
AcDbGroup
300

 70
     1
 71
     1
340
1138
340
1139
340
113A
  0
GROUP
  5
11CA
102
{ACAD_REACTORS
330
D
102
}
100
AcDbGroup
300

 70
     1
 71
     1
340
1138
340
1139
340
113A
  0
GROUP
  5
B63
102
{ACAD_REACTORS
330
D
102
}
100
AcDbGroup
300

 70
     1
 71
     1
  0
GROUP
  5
11CB
102
{ACAD_REACTORS
330
D
102
}
100
AcDbGroup
300

 70
     1
 71
     1
340
1132
340
1133
340
1134
  0
GROUP
  5
11CC
102
{ACAD_REACTORS
330
D
102
}
100
AcDbGroup
300

 70
     1
 71
     1
340
1132
340
1133
340
1134
  0
GROUP
  5
11CD
102
{ACAD_REACTORS
330
D
102
}
100
AcDbGroup
300

 70
     1
 71
     1
340
1135
340
1136
340
1137
  0
GROUP
  5
E71
102
{ACAD_REACTORS
330
D
102
}
100
AcDbGroup
300

 70
     1
 71
     1
340
E6E
340
E6F
340
E70
  0
GROUP
  5
11CE
102
{ACAD_REACTORS
330
D
102
}
100
AcDbGroup
300

 70
     1
 71
     1
340
1135
340
1136
340
1137
  0
GROUP
  5
11CF
102
{ACAD_REACTORS
330
D
102
}
100
AcDbGroup
300

 70
     1
 71
     1
340
1123
340
1124
340
1125
  0
GROUP
  5
11D0
102
{ACAD_REACTORS
330
D
102
}
100
AcDbGroup
300

 70
     1
 71
     1
340
1123
340
1124
340
1125
  0
GROUP
  5
11D1
102
{ACAD_REACTORS
330
D
102
}
100
AcDbGroup
300

 70
     1
 71
     1
340
1129
340
112A
340
112B
  0
GROUP
  5
11D2
102
{ACAD_REACTORS
330
D
102
}
100
AcDbGroup
300

 70
     1
 71
     1
340
1129
340
112A
340
112B
  0
GROUP
  5
11D3
102
{ACAD_REACTORS
330
D
102
}
100
AcDbGroup
300

 70
     1
 71
     1
340
1126
340
1127
340
1128
  0
GROUP
  5
11D4
102
{ACAD_REACTORS
330
D
102
}
100
AcDbGroup
300

 70
     1
 71
     1
340
1126
340
1127
340
1128
  0
GROUP
  5
B64
102
{ACAD_REACTORS
330
D
102
}
100
AcDbGroup
300

 70
     3
 71
     1
  0
GROUP
  5
11D5
102
{ACAD_REACTORS
330
D
102
}
100
AcDbGroup
300

 70
     1
 71
     1
340
1114
340
1115
340
1116
  0
GROUP
  5
11D6
102
{ACAD_REACTORS
330
D
102
}
100
AcDbGroup
300

 70
     1
 71
     1
340
1114
340
1115
340
1116
  0
GROUP
  5
BA3
102
{ACAD_REACTORS
330
D
102
}
100
AcDbGroup
300

 70
     1
 71
     1
  0
GROUP
  5
E72
102
{ACAD_REACTORS
330
D
102
}
100
AcDbGroup
300

 70
     1
 71
     1
340
E6E
340
E6F
340
E70
  0
GROUP
  5
11D7
102
{ACAD_REACTORS
330
D
102
}
100
AcDbGroup
300

 70
     1
 71
     1
340
1117
340
1118
340
1119
  0
GROUP
  5
11D8
102
{ACAD_REACTORS
330
D
102
}
100
AcDbGroup
300

 70
     1
 71
     1
340
1117
340
1118
340
1119
  0
GROUP
  5
11D9
102
{ACAD_REACTORS
330
D
102
}
100
AcDbGroup
300

 70
     1
 71
     1
340
1111
340
1112
340
1113
  0
GROUP
  5
11DA
102
{ACAD_REACTORS
330
D
102
}
100
AcDbGroup
300

 70
     1
 71
     1
340
1111
340
1112
340
1113
  0
GROUP
  5
11DB
102
{ACAD_REACTORS
330
D
102
}
100
AcDbGroup
300

 70
     1
 71
     1
340
111D
340
111E
340
111F
  0
GROUP
  5
11DC
102
{ACAD_REACTORS
330
D
102
}
100
AcDbGroup
300

 70
     1
 71
     1
340
111D
340
111E
340
111F
  0
GROUP
  5
11DD
102
{ACAD_REACTORS
330
D
102
}
100
AcDbGroup
300

 70
     1
 71
     1
340
111A
340
111B
340
111C
  0
GROUP
  5
11DE
102
{ACAD_REACTORS
330
D
102
}
100
AcDbGroup
300

 70
     1
 71
     1
340
111A
340
111B
340
111C
  0
GROUP
  5
B65
102
{ACAD_REACTORS
330
D
102
}
100
AcDbGroup
300

 70
     3
 71
     1
  0
GROUP
  5
11DF
102
{ACAD_REACTORS
330
D
102
}
100
AcDbGroup
300

 70
     1
 71
     1
340
1120
340
1121
340
1122
  0
GROUP
  5
E76
102
{ACAD_REACTORS
330
D
102
}
100
AcDbGroup
300

 70
     1
 71
     1
340
E73
340
E74
340
E75
  0
GROUP
  5
11E0
102
{ACAD_REACTORS
330
D
102
}
100
AcDbGroup
300

 70
     1
 71
     1
340
1120
340
1121
340
1122
  0
GROUP
  5
11E1
102
{ACAD_REACTORS
330
D
102
}
100
AcDbGroup
300

 70
     1
 71
     1
340
10F8
340
10F9
340
10FA
  0
GROUP
  5
11E2
102
{ACAD_REACTORS
330
D
102
}
100
AcDbGroup
300

 70
     1
 71
     1
340
10F8
340
10F9
340
10FA
  0
GROUP
  5
11E3
102
{ACAD_REACTORS
330
D
102
}
100
AcDbGroup
300

 70
     1
 71
     1
  0
GROUP
  5
11E4
102
{ACAD_REACTORS
330
D
102
}
100
AcDbGroup
300

 70
     1
 71
     1
  0
GROUP
  5
11E5
102
{ACAD_REACTORS
330
D
102
}
100
AcDbGroup
300

 70
     1
 71
     1
340
1175
340
1176
340
1177
  0
GROUP
  5
11E6
102
{ACAD_REACTORS
330
D
102
}
100
AcDbGroup
300

 70
     1
 71
     1
340
1175
340
1176
340
1177
  0
GROUP
  5
11E7
102
{ACAD_REACTORS
330
D
102
}
100
AcDbGroup
300

 70
     1
 71
     1
340
1172
340
1173
340
1174
  0
GROUP
  5
11E8
102
{ACAD_REACTORS
330
D
102
}
100
AcDbGroup
300

 70
     1
 71
     1
340
1172
340
1173
340
1174
  0
GROUP
  5
B66
102
{ACAD_REACTORS
330
D
102
}
100
AcDbGroup
300

 70
     3
 71
     1
  0
GROUP
  5
E77
102
{ACAD_REACTORS
330
D
102
}
100
AcDbGroup
300

 70
     1
 71
     1
340
E73
340
E74
340
E75
  0
GROUP
  5
1298
102
{ACAD_REACTORS
330
D
102
}
100
AcDbGroup
300

 70
     1
 71
     1
  0
GROUP
  5
1299
102
{ACAD_REACTORS
330
D
102
}
100
AcDbGroup
300

 70
     1
 71
     1
  0
GROUP
  5
129D
102
{ACAD_REACTORS
330
D
102
}
100
AcDbGroup
300

 70
     1
 71
     1
  0
GROUP
  5
129E
102
{ACAD_REACTORS
330
D
102
}
100
AcDbGroup
300

 70
     1
 71
     1
  0
GROUP
  5
12AE
102
{ACAD_REACTORS
330
D
102
}
100
AcDbGroup
300

 70
     1
 71
     1
340
12A8
340
12A9
340
12AA
  0
GROUP
  5
12AF
102
{ACAD_REACTORS
330
D
102
}
100
AcDbGroup
300

 70
     1
 71
     1
340
12A8
340
12A9
340
12AA
  0
GROUP
  5
12B0
102
{ACAD_REACTORS
330
D
102
}
100
AcDbGroup
300

 70
     1
 71
     1
340
12AB
340
12AC
340
12AD
  0
GROUP
  5
12B1
102
{ACAD_REACTORS
330
D
102
}
100
AcDbGroup
300

 70
     1
 71
     1
340
12AB
340
12AC
340
12AD
  0
GROUP
  5
1410
102
{ACAD_REACTORS
330
D
102
}
100
AcDbGroup
300

 70
     1
 71
     1
340
140D
340
140E
340
140F
  0
GROUP
  5
1411
102
{ACAD_REACTORS
330
D
102
}
100
AcDbGroup
300

 70
     1
 71
     1
340
140D
340
140E
340
140F
  0
GROUP
  5
E7B
102
{ACAD_REACTORS
330
D
102
}
100
AcDbGroup
300

 70
     1
 71
     1
340
E78
340
E79
340
E7A
  0
GROUP
  5
B43
102
{ACAD_REACTORS
330
D
102
}
100
AcDbGroup
300

 70
     1
 71
     1
  0
GROUP
  5
B67
102
{ACAD_REACTORS
330
D
102
}
100
AcDbGroup
300

 70
     1
 71
     1
  0
GROUP
  5
B68
102
{ACAD_REACTORS
330
D
102
}
100
AcDbGroup
300

 70
     1
 71
     1
  0
GROUP
  5
B69
102
{ACAD_REACTORS
330
D
102
}
100
AcDbGroup
300

 70
     1
 71
     1
  0
GROUP
  5
B6A
102
{ACAD_REACTORS
330
D
102
}
100
AcDbGroup
300

 70
     1
 71
     1
  0
GROUP
  5
B6B
102
{ACAD_REACTORS
330
D
102
}
100
AcDbGroup
300

 70
     1
 71
     1
  0
GROUP
  5
B6C
102
{ACAD_REACTORS
330
D
102
}
100
AcDbGroup
300

 70
     1
 71
     1
  0
GROUP
  5
B6D
102
{ACAD_REACTORS
330
D
102
}
100
AcDbGroup
300

 70
     1
 71
     1
  0
GROUP
  5
B6E
102
{ACAD_REACTORS
330
D
102
}
100
AcDbGroup
300

 70
     1
 71
     1
  0
GROUP
  5
B6F
102
{ACAD_REACTORS
330
D
102
}
100
AcDbGroup
300

 70
     1
 71
     1
  0
GROUP
  5
E7C
102
{ACAD_REACTORS
330
D
102
}
100
AcDbGroup
300

 70
     1
 71
     1
340
E78
340
E79
340
E7A
  0
GROUP
  5
B70
102
{ACAD_REACTORS
330
D
102
}
100
AcDbGroup
300

 70
     1
 71
     1
  0
GROUP
  5
B44
102
{ACAD_REACTORS
330
D
102
}
100
AcDbGroup
300

 70
     1
 71
     1
  0
GROUP
  5
B71
102
{ACAD_REACTORS
330
D
102
}
100
AcDbGroup
300

 70
     1
 71
     1
  0
GROUP
  5
B72
102
{ACAD_REACTORS
330
D
102
}
100
AcDbGroup
300

 70
     1
 71
     1
  0
GROUP
  5
B73
102
{ACAD_REACTORS
330
D
102
}
100
AcDbGroup
300

 70
     1
 71
     1
  0
GROUP
  5
B74
102
{ACAD_REACTORS
330
D
102
}
100
AcDbGroup
300

 70
     1
 71
     1
  0
GROUP
  5
B75
102
{ACAD_REACTORS
330
D
102
}
100
AcDbGroup
300

 70
     1
 71
     1
  0
GROUP
  5
B76
102
{ACAD_REACTORS
330
D
102
}
100
AcDbGroup
300

 70
     1
 71
     1
  0
GROUP
  5
B77
102
{ACAD_REACTORS
330
D
102
}
100
AcDbGroup
300

 70
     1
 71
     1
  0
GROUP
  5
B78
102
{ACAD_REACTORS
330
D
102
}
100
AcDbGroup
300

 70
     1
 71
     1
  0
GROUP
  5
B4C
102
{ACAD_REACTORS
330
D
102
}
100
AcDbGroup
300

 70
     1
 71
     1
  0
GROUP
  5
B79
102
{ACAD_REACTORS
330
D
102
}
100
AcDbGroup
300

 70
     1
 71
     1
  0
GROUP
  5
B7A
102
{ACAD_REACTORS
330
D
102
}
100
AcDbGroup
300

 70
     1
 71
     1
  0
GROUP
  5
B45
102
{ACAD_REACTORS
330
D
102
}
100
AcDbGroup
300

 70
     1
 71
     1
  0
GROUP
  5
B7B
102
{ACAD_REACTORS
330
D
102
}
100
AcDbGroup
300

 70
     1
 71
     1
  0
GROUP
  5
B7C
102
{ACAD_REACTORS
330
D
102
}
100
AcDbGroup
300

 70
     1
 71
     1
  0
GROUP
  5
B7D
102
{ACAD_REACTORS
330
D
102
}
100
AcDbGroup
300

 70
     1
 71
     1
  0
GROUP
  5
B7E
102
{ACAD_REACTORS
330
D
102
}
100
AcDbGroup
300

 70
     1
 71
     1
  0
GROUP
  5
B7F
102
{ACAD_REACTORS
330
D
102
}
100
AcDbGroup
300

 70
     1
 71
     1
  0
GROUP
  5
B80
102
{ACAD_REACTORS
330
D
102
}
100
AcDbGroup
300

 70
     1
 71
     1
  0
GROUP
  5
B81
102
{ACAD_REACTORS
330
D
102
}
100
AcDbGroup
300

 70
     1
 71
     1
  0
GROUP
  5
E80
102
{ACAD_REACTORS
330
D
102
}
100
AcDbGroup
300

 70
     1
 71
     1
340
E7D
340
E7E
340
E7F
  0
GROUP
  5
B82
102
{ACAD_REACTORS
330
D
102
}
100
AcDbGroup
300

 70
     1
 71
     1
  0
GROUP
  5
B83
102
{ACAD_REACTORS
330
D
102
}
100
AcDbGroup
300

 70
     1
 71
     1
  0
GROUP
  5
B84
102
{ACAD_REACTORS
330
D
102
}
100
AcDbGroup
300

 70
     1
 71
     1
  0
GROUP
  5
B46
102
{ACAD_REACTORS
330
D
102
}
100
AcDbGroup
300

 70
     1
 71
     1
  0
GROUP
  5
B85
102
{ACAD_REACTORS
330
D
102
}
100
AcDbGroup
300

 70
     1
 71
     1
  0
GROUP
  5
B86
102
{ACAD_REACTORS
330
D
102
}
100
AcDbGroup
300

 70
     1
 71
     1
  0
GROUP
  5
B87
102
{ACAD_REACTORS
330
D
102
}
100
AcDbGroup
300

 70
     1
 71
     1
  0
GROUP
  5
B88
102
{ACAD_REACTORS
330
D
102
}
100
AcDbGroup
300

 70
     1
 71
     1
  0
GROUP
  5
B89
102
{ACAD_REACTORS
330
D
102
}
100
AcDbGroup
300

 70
     1
 71
     1
  0
GROUP
  5
B8A
102
{ACAD_REACTORS
330
D
102
}
100
AcDbGroup
300

 70
     1
 71
     1
  0
GROUP
  5
E81
102
{ACAD_REACTORS
330
D
102
}
100
AcDbGroup
300

 70
     1
 71
     1
340
E7D
340
E7E
340
E7F
  0
GROUP
  5
B8B
102
{ACAD_REACTORS
330
D
102
}
100
AcDbGroup
300

 70
     1
 71
     1
  0
GROUP
  5
B8C
102
{ACAD_REACTORS
330
D
102
}
100
AcDbGroup
300

 70
     1
 71
     1
  0
GROUP
  5
B8D
102
{ACAD_REACTORS
330
D
102
}
100
AcDbGroup
300

 70
     1
 71
     1
  0
GROUP
  5
B8E
102
{ACAD_REACTORS
330
D
102
}
100
AcDbGroup
300

 70
     1
 71
     1
  0
GROUP
  5
B47
102
{ACAD_REACTORS
330
D
102
}
100
AcDbGroup
300

 70
     1
 71
     1
  0
GROUP
  5
B8F
102
{ACAD_REACTORS
330
D
102
}
100
AcDbGroup
300

 70
     1
 71
     1
  0
GROUP
  5
B90
102
{ACAD_REACTORS
330
D
102
}
100
AcDbGroup
300

 70
     1
 71
     1
  0
GROUP
  5
B91
102
{ACAD_REACTORS
330
D
102
}
100
AcDbGroup
300

 70
     1
 71
     1
  0
GROUP
  5
B92
102
{ACAD_REACTORS
330
D
102
}
100
AcDbGroup
300

 70
     1
 71
     1
  0
GROUP
  5
B93
102
{ACAD_REACTORS
330
D
102
}
100
AcDbGroup
300

 70
     1
 71
     1
  0
GROUP
  5
E85
102
{ACAD_REACTORS
330
D
102
}
100
AcDbGroup
300

 70
     1
 71
     1
340
E82
340
E83
340
E84
  0
GROUP
  5
B94
102
{ACAD_REACTORS
330
D
102
}
100
AcDbGroup
300

 70
     1
 71
     1
  0
GROUP
  5
B95
102
{ACAD_REACTORS
330
D
102
}
100
AcDbGroup
300

 70
     1
 71
     1
  0
GROUP
  5
B96
102
{ACAD_REACTORS
330
D
102
}
100
AcDbGroup
300

 70
     1
 71
     1
  0
GROUP
  5
B97
102
{ACAD_REACTORS
330
D
102
}
100
AcDbGroup
300

 70
     1
 71
     1
  0
GROUP
  5
B98
102
{ACAD_REACTORS
330
D
102
}
100
AcDbGroup
300

 70
     1
 71
     1
  0
GROUP
  5
B48
102
{ACAD_REACTORS
330
D
102
}
100
AcDbGroup
300

 70
     1
 71
     1
  0
GROUP
  5
B99
102
{ACAD_REACTORS
330
D
102
}
100
AcDbGroup
300

 70
     1
 71
     1
  0
GROUP
  5
B9A
102
{ACAD_REACTORS
330
D
102
}
100
AcDbGroup
300

 70
     1
 71
     1
  0
GROUP
  5
B9B
102
{ACAD_REACTORS
330
D
102
}
100
AcDbGroup
300

 70
     1
 71
     1
  0
GROUP
  5
B9C
102
{ACAD_REACTORS
330
D
102
}
100
AcDbGroup
300

 70
     1
 71
     1
  0
GROUP
  5
E86
102
{ACAD_REACTORS
330
D
102
}
100
AcDbGroup
300

 70
     1
 71
     1
340
E82
340
E83
340
E84
  0
GROUP
  5
B9D
102
{ACAD_REACTORS
330
D
102
}
100
AcDbGroup
300

 70
     1
 71
     1
  0
GROUP
  5
B9E
102
{ACAD_REACTORS
330
D
102
}
100
AcDbGroup
300

 70
     1
 71
     1
  0
GROUP
  5
B9F
102
{ACAD_REACTORS
330
D
102
}
100
AcDbGroup
300

 70
     1
 71
     1
  0
GROUP
  5
BA0
102
{ACAD_REACTORS
330
D
102
}
100
AcDbGroup
300

 70
     1
 71
     1
  0
GROUP
  5
BA1
102
{ACAD_REACTORS
330
D
102
}
100
AcDbGroup
300

 70
     1
 71
     1
  0
GROUP
  5
BA2
102
{ACAD_REACTORS
330
D
102
}
100
AcDbGroup
300

 70
     1
 71
     1
  0
GROUP
  5
BA4
102
{ACAD_REACTORS
330
D
102
}
100
AcDbGroup
300

 70
     1
 71
     1
  0
GROUP
  5
E8A
102
{ACAD_REACTORS
330
D
102
}
100
AcDbGroup
300

 70
     1
 71
     1
340
E87
340
E88
340
E89
  0
GROUP
  5
E8B
102
{ACAD_REACTORS
330
D
102
}
100
AcDbGroup
300

 70
     1
 71
     1
340
E87
340
E88
340
E89
  0
GROUP
  5
E8F
102
{ACAD_REACTORS
330
D
102
}
100
AcDbGroup
300

 70
     1
 71
     1
340
E8C
340
E8D
340
E8E
  0
GROUP
  5
E90
102
{ACAD_REACTORS
330
D
102
}
100
AcDbGroup
300

 70
     1
 71
     1
340
E8C
340
E8D
340
E8E
  0
GROUP
  5
E94
102
{ACAD_REACTORS
330
D
102
}
100
AcDbGroup
300

 70
     1
 71
     1
340
E91
340
E92
340
E93
  0
GROUP
  5
E95
102
{ACAD_REACTORS
330
D
102
}
100
AcDbGroup
300

 70
     1
 71
     1
340
E91
340
E92
340
E93
  0
GROUP
  5
B4D
102
{ACAD_REACTORS
330
D
102
}
100
AcDbGroup
300

 70
     1
 71
     1
  0
GROUP
  5
E99
102
{ACAD_REACTORS
330
D
102
}
100
AcDbGroup
300

 70
     1
 71
     1
340
E96
340
E97
340
E98
  0
GROUP
  5
E9A
102
{ACAD_REACTORS
330
D
102
}
100
AcDbGroup
300

 70
     1
 71
     1
340
E96
340
E97
340
E98
  0
GROUP
  5
E9E
102
{ACAD_REACTORS
330
D
102
}
100
AcDbGroup
300

 70
     1
 71
     1
  0
GROUP
  5
BA5
102
{ACAD_REACTORS
330
D
102
}
100
AcDbGroup
300

 70
     1
 71
     1
  0
GROUP
  5
E9F
102
{ACAD_REACTORS
330
D
102
}
100
AcDbGroup
300

 70
     1
 71
     1
  0
GROUP
  5
EA3
102
{ACAD_REACTORS
330
D
102
}
100
AcDbGroup
300

 70
     1
 71
     1
340
EA0
340
EA1
340
EA2
  0
GROUP
  5
EA4
102
{ACAD_REACTORS
330
D
102
}
100
AcDbGroup
300

 70
     1
 71
     1
340
EA0
340
EA1
340
EA2
  0
GROUP
  5
EA8
102
{ACAD_REACTORS
330
D
102
}
100
AcDbGroup
300

 70
     1
 71
     1
340
EA5
340
EA6
340
EA7
  0
GROUP
  5
EA9
102
{ACAD_REACTORS
330
D
102
}
100
AcDbGroup
300

 70
     1
 71
     1
340
EA5
340
EA6
340
EA7
  0
GROUP
  5
EAD
102
{ACAD_REACTORS
330
D
102
}
100
AcDbGroup
300

 70
     1
 71
     1
340
EAA
340
EAB
340
EAC
  0
GROUP
  5
EAE
102
{ACAD_REACTORS
330
D
102
}
100
AcDbGroup
300

 70
     1
 71
     1
340
EAA
340
EAB
340
EAC
  0
GROUP
  5
B4E
102
{ACAD_REACTORS
330
D
102
}
100
AcDbGroup
300

 70
     1
 71
     1
  0
GROUP
  5
EB2
102
{ACAD_REACTORS
330
D
102
}
100
AcDbGroup
300

 70
     1
 71
     1
340
EAF
340
EB0
340
EB1
  0
GROUP
  5
EB3
102
{ACAD_REACTORS
330
D
102
}
100
AcDbGroup
300

 70
     1
 71
     1
340
EAF
340
EB0
340
EB1
  0
GROUP
  5
BA6
102
{ACAD_REACTORS
330
D
102
}
100
AcDbGroup
300

 70
     1
 71
     1
  0
GROUP
  5
EB7
102
{ACAD_REACTORS
330
D
102
}
100
AcDbGroup
300

 70
     1
 71
     1
340
EB4
340
EB5
340
EB6
  0
GROUP
  5
EB8
102
{ACAD_REACTORS
330
D
102
}
100
AcDbGroup
300

 70
     1
 71
     1
340
EB4
340
EB5
340
EB6
  0
GROUP
  5
EBC
102
{ACAD_REACTORS
330
D
102
}
100
AcDbGroup
300

 70
     1
 71
     1
340
EB9
340
EBA
340
EBB
  0
GROUP
  5
EBD
102
{ACAD_REACTORS
330
D
102
}
100
AcDbGroup
300

 70
     1
 71
     1
340
EB9
340
EBA
340
EBB
  0
GROUP
  5
EC1
102
{ACAD_REACTORS
330
D
102
}
100
AcDbGroup
300

 70
     1
 71
     1
340
EBE
340
EBF
340
EC0
  0
GROUP
  5
EC2
102
{ACAD_REACTORS
330
D
102
}
100
AcDbGroup
300

 70
     1
 71
     1
340
EBE
340
EBF
340
EC0
  0
GROUP
  5
EC6
102
{ACAD_REACTORS
330
D
102
}
100
AcDbGroup
300

 70
     1
 71
     1
340
EC3
340
EC4
340
EC5
  0
GROUP
  5
EC7
102
{ACAD_REACTORS
330
D
102
}
100
AcDbGroup
300

 70
     1
 71
     1
340
EC3
340
EC4
340
EC5
  0
GROUP
  5
B4F
102
{ACAD_REACTORS
330
D
102
}
100
AcDbGroup
300

 70
     1
 71
     1
  0
GROUP
  5
F14
102
{ACAD_REACTORS
330
D
102
}
100
AcDbGroup
300

 70
     1
 71
     1
340
EF9
340
EFA
340
EFB
  0
GROUP
  5
BA7
102
{ACAD_REACTORS
330
D
102
}
100
AcDbGroup
300

 70
     1
 71
     1
  0
GROUP
  5
F15
102
{ACAD_REACTORS
330
D
102
}
100
AcDbGroup
300

 70
     1
 71
     1
340
EF9
340
EFA
340
EFB
  0
GROUP
  5
F16
102
{ACAD_REACTORS
330
D
102
}
100
AcDbGroup
300

 70
     1
 71
     1
340
EF6
340
EF7
340
EF8
  0
GROUP
  5
F17
102
{ACAD_REACTORS
330
D
102
}
100
AcDbGroup
300

 70
     1
 71
     1
340
EF6
340
EF7
340
EF8
  0
GROUP
  5
F18
102
{ACAD_REACTORS
330
D
102
}
100
AcDbGroup
300

 70
     1
 71
     1
340
EF3
340
EF4
340
EF5
  0
GROUP
  5
F19
102
{ACAD_REACTORS
330
D
102
}
100
AcDbGroup
300

 70
     1
 71
     1
340
EF3
340
EF4
340
EF5
  0
GROUP
  5
F1A
102
{ACAD_REACTORS
330
D
102
}
100
AcDbGroup
300

 70
     1
 71
     1
340
EF0
340
EF1
340
EF2
  0
GROUP
  5
F1B
102
{ACAD_REACTORS
330
D
102
}
100
AcDbGroup
300

 70
     1
 71
     1
340
EF0
340
EF1
340
EF2
  0
GROUP
  5
B50
102
{ACAD_REACTORS
330
D
102
}
100
AcDbGroup
300

 70
     1
 71
     1
  0
GROUP
  5
F1C
102
{ACAD_REACTORS
330
D
102
}
100
AcDbGroup
300

 70
     1
 71
     1
340
EED
340
EEE
340
EEF
  0
GROUP
  5
F1D
102
{ACAD_REACTORS
330
D
102
}
100
AcDbGroup
300

 70
     1
 71
     1
340
EED
340
EEE
340
EEF
  0
GROUP
  5
BA8
102
{ACAD_REACTORS
330
D
102
}
100
AcDbGroup
300

 70
     1
 71
     1
  0
GROUP
  5
F1E
102
{ACAD_REACTORS
330
D
102
}
100
AcDbGroup
300

 70
     1
 71
     1
  0
GROUP
  5
F1F
102
{ACAD_REACTORS
330
D
102
}
100
AcDbGroup
300

 70
     1
 71
     1
  0
GROUP
  5
F20
102
{ACAD_REACTORS
330
D
102
}
100
AcDbGroup
300

 70
     1
 71
     1
  0
GROUP
  5
F21
102
{ACAD_REACTORS
330
D
102
}
100
AcDbGroup
300

 70
     1
 71
     1
  0
GROUP
  5
F22
102
{ACAD_REACTORS
330
D
102
}
100
AcDbGroup
300

 70
     1
 71
     1
  0
GROUP
  5
F23
102
{ACAD_REACTORS
330
D
102
}
100
AcDbGroup
300

 70
     1
 71
     1
  0
GROUP
  5
F24
102
{ACAD_REACTORS
330
D
102
}
100
AcDbGroup
300

 70
     1
 71
     1
  0
GROUP
  5
F25
102
{ACAD_REACTORS
330
D
102
}
100
AcDbGroup
300

 70
     1
 71
     1
  0
GROUP
  5
B51
102
{ACAD_REACTORS
330
D
102
}
100
AcDbGroup
300

 70
     1
 71
     1
  0
GROUP
  5
F26
102
{ACAD_REACTORS
330
D
102
}
100
AcDbGroup
300

 70
     1
 71
     1
340
EEA
340
EEB
340
EEC
  0
GROUP
  5
BA9
102
{ACAD_REACTORS
330
D
102
}
100
AcDbGroup
300

 70
     1
 71
     1
  0
GROUP
  5
F27
102
{ACAD_REACTORS
330
D
102
}
100
AcDbGroup
300

 70
     1
 71
     1
340
EEA
340
EEB
340
EEC
  0
GROUP
  5
F28
102
{ACAD_REACTORS
330
D
102
}
100
AcDbGroup
300

 70
     1
 71
     1
340
F05
340
F06
340
F07
  0
GROUP
  5
F29
102
{ACAD_REACTORS
330
D
102
}
100
AcDbGroup
300

 70
     1
 71
     1
340
F05
340
F06
340
F07
  0
GROUP
  5
F2A
102
{ACAD_REACTORS
330
D
102
}
100
AcDbGroup
300

 70
     1
 71
     1
340
EFC
340
EFD
340
EFE
  0
GROUP
  5
F2B
102
{ACAD_REACTORS
330
D
102
}
100
AcDbGroup
300

 70
     1
 71
     1
340
EFC
340
EFD
340
EFE
  0
GROUP
  5
F2C
102
{ACAD_REACTORS
330
D
102
}
100
AcDbGroup
300

 70
     1
 71
     1
340
F02
340
F03
340
F04
  0
GROUP
  5
F2D
102
{ACAD_REACTORS
330
D
102
}
100
AcDbGroup
300

 70
     1
 71
     1
340
F02
340
F03
340
F04
  0
GROUP
  5
F2E
102
{ACAD_REACTORS
330
D
102
}
100
AcDbGroup
300

 70
     1
 71
     1
340
EFF
340
F00
340
F01
  0
GROUP
  5
F2F
102
{ACAD_REACTORS
330
D
102
}
100
AcDbGroup
300

 70
     1
 71
     1
340
EFF
340
F00
340
F01
  0
GROUP
  5
B52
102
{ACAD_REACTORS
330
D
102
}
100
AcDbGroup
300

 70
     1
 71
     1
  0
MLINESTYLE
  5
1C
102
{ACAD_REACTORS
330
1B
102
}
100
AcDbMlineStyle
  2
STANDARD
 70
     0
  3

 62
   256
 51
90.0
 52
90.0
 71
     2
 49
0.5
 62
   256
  6
BYLAYER
 49
-0.5
 62
   256
  6
BYLAYER
  0
ENDSEC
  0
EOF
