  0
SECTION
  2
HEADER
  9
$ACADVER
  1
AC1014
  9
$ACADMAINTVER
 70
     0
  9
$DWGCODEPAGE
  3
ANSI_1252
  9
$INSBASE
 10
0.0
 20
0.0
 30
0.0
  9
$EXTMIN
 10
-6.35
 20
-3.81
 30
0.0
  9
$EXTMAX
 10
93.909162
 20
83.82
 30
0.0
  9
$LIMMIN
 10
-1.27
 20
0.0
  9
$LIMMAX
 10
90.17
 20
80.01
  9
$ORTHOMODE
 70
     1
  9
$REGENMODE
 70
     1
  9
$FILLMODE
 70
     1
  9
$QTEXTMODE
 70
     0
  9
$MIRRTEXT
 70
     1
  9
$DRAGMODE
 70
     2
  9
$LTSCALE
 40
1.0
  9
$OSMODE
 70
    63
  9
$ATTMODE
 70
     1
  9
$TEXTSIZE
 40
0.2
  9
$TRACEWID
 40
1.5
  9
$TEXTSTYLE
  7
STANDARD
  9
$CLAYER
  8
DRILL
  9
$CELTYPE
  6
BYLAYER
  9
$CECOLOR
 62
   256
  9
$CELTSCALE
 40
1.0
  9
$DELOBJ
 70
     1
  9
$DISPSILH
 70
     0
  9
$DIMSCALE
 40
1.0
  9
$DIMASZ
 40
0.18
  9
$DIMEXO
 40
0.0625
  9
$DIMDLI
 40
0.38
  9
$DIMRND
 40
0.0
  9
$DIMDLE
 40
0.0
  9
$DIMEXE
 40
0.18
  9
$DIMTP
 40
0.0
  9
$DIMTM
 40
0.0
  9
$DIMTXT
 40
0.18
  9
$DIMCEN
 40
0.09
  9
$DIMTSZ
 40
0.0
  9
$DIMTOL
 70
     0
  9
$DIMLIM
 70
     0
  9
$DIMTIH
 70
     1
  9
$DIMTOH
 70
     1
  9
$DIMSE1
 70
     0
  9
$DIMSE2
 70
     0
  9
$DIMTAD
 70
     0
  9
$DIMZIN
 70
     0
  9
$DIMBLK
  1

  9
$DIMASO
 70
     1
  9
$DIMSHO
 70
     0
  9
$DIMPOST
  1

  9
$DIMAPOST
  1

  9
$DIMALT
 70
     0
  9
$DIMALTD
 70
     2
  9
$DIMALTF
 40
25.4
  9
$DIMLFAC
 40
1.0
  9
$DIMTOFL
 70
     0
  9
$DIMTVP
 40
0.0
  9
$DIMTIX
 70
     0
  9
$DIMSOXD
 70
     0
  9
$DIMSAH
 70
     0
  9
$DIMBLK1
  1

  9
$DIMBLK2
  1

  9
$DIMSTYLE
  2
STANDARD
  9
$DIMCLRD
 70
     0
  9
$DIMCLRE
 70
     0
  9
$DIMCLRT
 70
     0
  9
$DIMTFAC
 40
1.0
  9
$DIMGAP
 40
0.09
  9
$DIMJUST
 70
     0
  9
$DIMSD1
 70
     0
  9
$DIMSD2
 70
     0
  9
$DIMTOLJ
 70
     1
  9
$DIMTZIN
 70
     0
  9
$DIMALTZ
 70
     0
  9
$DIMALTTZ
 70
     0
  9
$DIMFIT
 70
     3
  9
$DIMUPT
 70
     0
  9
$DIMUNIT
 70
     2
  9
$DIMDEC
 70
     4
  9
$DIMTDEC
 70
     4
  9
$DIMALTU
 70
     2
  9
$DIMALTTD
 70
     2
  9
$DIMTXSTY
  7
STANDARD
  9
$DIMAUNIT
 70
     0
  9
$LUNITS
 70
     2
  9
$LUPREC
 70
     4
  9
$SKETCHINC
 40
0.1
  9
$FILLETRAD
 40
0.0
  9
$AUNITS
 70
     0
  9
$AUPREC
 70
     0
  9
$MENU
  1
ACAD
  9
$ELEVATION
 40
0.0
  9
$PELEVATION
 40
0.0
  9
$THICKNESS
 40
0.0
  9
$LIMCHECK
 70
     0
  9
$BLIPMODE
 70
     1
  9
$CHAMFERA
 40
0.0
  9
$CHAMFERB
 40
0.0
  9
$CHAMFERC
 40
0.0
  9
$CHAMFERD
 40
0.0
  9
$SKPOLY
 70
     0
  9
$TDCREATE
 40
2447732.651236389
  9
$TDUPDATE
 40
2451981.930781713
  9
$TDINDWG
 40
0.2482811343
  9
$TDUSRTIMER
 40
0.2482811343
  9
$USRTIMER
 70
     1
  9
$ANGBASE
 50
0.0
  9
$ANGDIR
 70
     0
  9
$PDMODE
 70
     0
  9
$PDSIZE
 40
0.0
  9
$PLINEWID
 40
0.0
  9
$COORDS
 70
     0
  9
$SPLFRAME
 70
     0
  9
$SPLINETYPE
 70
     6
  9
$SPLINESEGS
 70
     8
  9
$ATTDIA
 70
     0
  9
$ATTREQ
 70
     1
  9
$HANDLING
 70
     1
  9
$HANDSEED
  5
E6D4
  9
$SURFTAB1
 70
     6
  9
$SURFTAB2
 70
     6
  9
$SURFTYPE
 70
     6
  9
$SURFU
 70
     6
  9
$SURFV
 70
     6
  9
$UCSNAME
  2

  9
$UCSORG
 10
0.0
 20
0.0
 30
0.0
  9
$UCSXDIR
 10
1.0
 20
0.0
 30
0.0
  9
$UCSYDIR
 10
0.0
 20
1.0
 30
0.0
  9
$PUCSNAME
  2

  9
$PUCSORG
 10
0.0
 20
0.0
 30
0.0
  9
$PUCSXDIR
 10
1.0
 20
0.0
 30
0.0
  9
$PUCSYDIR
 10
0.0
 20
1.0
 30
0.0
  9
$USERI1
 70
     0
  9
$USERI2
 70
     0
  9
$USERI3
 70
     0
  9
$USERI4
 70
     0
  9
$USERI5
 70
     0
  9
$USERR1
 40
0.0
  9
$USERR2
 40
0.0
  9
$USERR3
 40
0.0
  9
$USERR4
 40
0.0
  9
$USERR5
 40
0.0
  9
$WORLDVIEW
 70
     1
  9
$SHADEDGE
 70
     3
  9
$SHADEDIF
 70
    70
  9
$TILEMODE
 70
     1
  9
$MAXACTVP
 70
    48
  9
$PINSBASE
 10
0.0
 20
0.0
 30
0.0
  9
$PLIMCHECK
 70
     0
  9
$PEXTMIN
 10
1.000000E+20
 20
1.000000E+20
 30
1.000000E+20
  9
$PEXTMAX
 10
-1.000000E+20
 20
-1.000000E+20
 30
-1.000000E+20
  9
$PLIMMIN
 10
0.0
 20
0.0
  9
$PLIMMAX
 10
12.0
 20
9.0
  9
$UNITMODE
 70
     0
  9
$VISRETAIN
 70
     1
  9
$PLINEGEN
 70
     0
  9
$PSLTSCALE
 70
     1
  9
$TREEDEPTH
 70
  3020
  9
$PICKSTYLE
 70
     1
  9
$CMLSTYLE
  2
STANDARD
  9
$CMLJUST
 70
     0
  9
$CMLSCALE
 40
1.0
  9
$PROXYGRAPHICS
 70
     1
  9
$MEASUREMENT
 70
     0
  0
ENDSEC
  0
SECTION
  2
CLASSES
  0
CLASS
  1
LWPOLYLINE
  2
AcDbPolyline
  3
"AutoCAD"
 90
        0
280
     0
281
     1
  0
ENDSEC
  0
SECTION
  2
TABLES
  0
TABLE
  2
VPORT
  5
8
100
AcDbSymbolTable
 70
     2
  0
VPORT
  5
E6D3
100
AcDbSymbolTableRecord
100
AcDbViewportTableRecord
  2
*ACTIVE
 70
     0
 10
0.0
 20
0.0
 11
1.0
 21
1.0
 12
105.991075
 22
60.526911
 13
0.0
 23
0.0
 14
1.27
 24
1.27
 15
2.54
 25
2.54
 16
0.0
 26
0.0
 36
1.0
 17
0.0
 27
0.0
 37
0.0
 40
166.290837
 41
1.700368
 42
50.0
 43
0.0
 44
0.0
 50
0.0
 51
0.0
 71
     0
 72
   100
 73
     1
 74
     1
 75
     0
 76
     1
 77
     0
 78
     0
  0
ENDTAB
  0
TABLE
  2
LTYPE
  5
5
100
AcDbSymbolTable
 70
     1
  0
LTYPE
  5
12
100
AcDbSymbolTableRecord
100
AcDbLinetypeTableRecord
  2
BYBLOCK
 70
     0
  3

 72
    65
 73
     0
 40
0.0
  0
LTYPE
  5
13
100
AcDbSymbolTableRecord
100
AcDbLinetypeTableRecord
  2
BYLAYER
 70
     0
  3

 72
    65
 73
     0
 40
0.0
  0
LTYPE
  5
14
100
AcDbSymbolTableRecord
100
AcDbLinetypeTableRecord
  2
CONTINUOUS
 70
     0
  3
Solid line
 72
    65
 73
     0
 40
0.0
  0
ENDTAB
  0
TABLE
  2
LAYER
  5
2
100
AcDbSymbolTable
 70
     5
  0
LAYER
  5
E
100
AcDbSymbolTableRecord
100
AcDbLayerTableRecord
  2
0
 70
     0
 62
     7
  6
CONTINUOUS
  0
LAYER
  5
20
100
AcDbSymbolTableRecord
100
AcDbLayerTableRecord
  2
BOTT-PCB
 70
     0
 62
     2
  6
CONTINUOUS
  0
LAYER
  5
D341
100
AcDbSymbolTableRecord
100
AcDbLayerTableRecord
  2
DEFPOINTS
 70
     0
 62
     7
  6
CONTINUOUS
  0
LAYER
  5
E149
100
AcDbSymbolTableRecord
100
AcDbLayerTableRecord
  2
TOP-PCB
 70
     0
 62
     1
  6
CONTINUOUS
  0
LAYER
  5
E36B
100
AcDbSymbolTableRecord
100
AcDbLayerTableRecord
  2
DRILL
 70
     0
 62
     5
  6
CONTINUOUS
  0
ENDTAB
  0
TABLE
  2
STYLE
  5
3
100
AcDbSymbolTable
 70
     1
  0
STYLE
  5
F
100
AcDbSymbolTableRecord
100
AcDbTextStyleTableRecord
  2
STANDARD
 70
     0
 40
0.0
 41
1.0
 50
0.0
 71
     0
 42
0.2
  3
TXT
  4

  0
ENDTAB
  0
TABLE
  2
VIEW
  5
6
100
AcDbSymbolTable
 70
     0
  0
ENDTAB
  0
TABLE
  2
UCS
  5
7
100
AcDbSymbolTable
 70
     0
  0
ENDTAB
  0
TABLE
  2
APPID
  5
9
100
AcDbSymbolTable
 70
     1
  0
APPID
  5
10
100
AcDbSymbolTableRecord
100
AcDbRegAppTableRecord
  2
ACAD
 70
     0
  0
ENDTAB
  0
TABLE
  2
DIMSTYLE
  5
A
100
AcDbSymbolTable
 70
     1
  0
DIMSTYLE
105
5A48
100
AcDbSymbolTableRecord
100
AcDbDimStyleTableRecord
  2
STANDARD
 70
     0
  3

  4

  5

  6

  7

 40
1.0
 41
0.18
 42
0.0625
 43
0.38
 44
0.18
 45
0.0
 46
0.0
 47
0.0
 48
0.0
140
0.18
141
0.09
142
0.0
143
25.4
144
1.0
145
0.0
146
1.0
147
0.09
 71
     0
 72
     0
 73
     1
 74
     1
 75
     0
 76
     0
 77
     0
 78
     0
170
     0
171
     2
172
     0
173
     0
174
     0
175
     0
176
     0
177
     0
178
     0
270
     2
271
     4
272
     4
273
     2
274
     2
340
F
275
     0
280
     0
281
     0
282
     0
283
     1
284
     0
285
     0
286
     0
287
     3
288
     0
  0
ENDTAB
  0
TABLE
  2
BLOCK_RECORD
  5
1
100
AcDbSymbolTable
 70
     1
  0
BLOCK_RECORD
  5
18
100
AcDbSymbolTableRecord
100
AcDbBlockTableRecord
  2
*MODEL_SPACE
  0
BLOCK_RECORD
  5
15
100
AcDbSymbolTableRecord
100
AcDbBlockTableRecord
  2
*PAPER_SPACE
  0
ENDTAB
  0
ENDSEC
  0
SECTION
  2
BLOCKS
  0
BLOCK
  5
19
100
AcDbEntity
  8
0
100
AcDbBlockBegin
  2
*MODEL_SPACE
 70
     0
 10
0.0
 20
0.0
 30
0.0
  3
*MODEL_SPACE
  1

  0
ENDBLK
  5
1A
100
AcDbEntity
  8
0
100
AcDbBlockEnd
  0
BLOCK
  5
16
100
AcDbEntity
 67
     1
  8
0
100
AcDbBlockBegin
  2
*PAPER_SPACE
 70
     0
 10
0.0
 20
0.0
 30
0.0
  3
*PAPER_SPACE
  1

  0
ENDBLK
  5
17
100
AcDbEntity
 67
     1
  8
0
100
AcDbBlockEnd
  0
ENDSEC
  0
SECTION
  2
ENTITIES
  0
LWPOLYLINE
  5
DB12
100
AcDbEntity
  8
BOTT-PCB
  6
CONTINUOUS
100
AcDbPolyline
 90
        4
 70
     1
 43
0.0
 10
66.8405
 20
59.4665
 42
-1.0
 10
66.8405
 20
57.3735
 10
65.2395
 20
57.3735
 42
-1.0
 10
65.2395
 20
59.4665
  0
LWPOLYLINE
  5
DB15
100
AcDbEntity
  8
BOTT-PCB
  6
CONTINUOUS
100
AcDbPolyline
 90
        4
 70
     1
 43
0.0
 10
66.8405
 20
64.5465
 42
-1.0
 10
66.8405
 20
62.4535
 10
65.2395
 20
62.4535
 42
-1.0
 10
65.2395
 20
64.5465
  0
LWPOLYLINE
  5
DB16
100
AcDbEntity
  8
BOTT-PCB
  6
CONTINUOUS
100
AcDbPolyline
 90
        6
 70
     0
 43
0.0
 10
64.509663
 20
61.71
 42
-0.195374
 10
65.2395
 20
62.0065
 10
66.8405
 20
62.0065
 42
-1.0
 10
66.8405
 20
59.9135
 10
65.2395
 20
59.9135
 42
-0.195374
 10
64.509663
 20
60.21
 42
-0.195374
  0
CIRCLE
  5
DB17
100
AcDbEntity
  8
DRILL
100
AcDbCircle
 10
66.04
 20
60.96
 30
0.0
 40
0.15
  0
CIRCLE
  5
DB18
100
AcDbEntity
  8
DRILL
100
AcDbCircle
 10
66.04
 20
58.42
 30
0.0
 40
0.15
  0
CIRCLE
  5
DB19
100
AcDbEntity
  8
DRILL
100
AcDbCircle
 10
66.04
 20
66.04
 30
0.0
 40
0.15
  0
CIRCLE
  5
DB1A
100
AcDbEntity
  8
DRILL
100
AcDbCircle
 10
66.04
 20
63.5
 30
0.0
 40
0.15
  0
LWPOLYLINE
  5
DB1B
100
AcDbEntity
  8
BOTT-PCB
  6
CONTINUOUS
100
AcDbPolyline
 90
        4
 70
     1
 43
0.0
 10
66.8405
 20
72.1665
 42
-1.0
 10
66.8405
 20
70.0735
 10
65.2395
 20
70.0735
 42
-1.0
 10
65.2395
 20
72.1665
  0
LWPOLYLINE
  5
DB1C
100
AcDbEntity
  8
BOTT-PCB
  6
CONTINUOUS
100
AcDbPolyline
 90
        3
 70
     0
 43
0.0
 10
66.04
 20
69.6265
 10
66.8405
 20
69.6265
 42
-0.195374
 10
67.570337
 20
69.33
 42
-0.195374
  0
LWPOLYLINE
  5
DB1D
100
AcDbEntity
  8
BOTT-PCB
  6
CONTINUOUS
100
AcDbPolyline
 90
        4
 70
     1
 43
0.0
 10
66.8405
 20
74.7065
 42
-1.0
 10
66.8405
 20
72.6135
 10
65.2395
 20
72.6135
 42
-1.0
 10
65.2395
 20
74.7065
  0
CIRCLE
  5
DB1E
100
AcDbEntity
  8
DRILL
100
AcDbCircle
 10
66.04
 20
71.12
 30
0.0
 40
0.15
  0
CIRCLE
  5
DB1F
100
AcDbEntity
  8
DRILL
100
AcDbCircle
 10
66.04
 20
68.58
 30
0.0
 40
0.15
  0
CIRCLE
  5
DB20
100
AcDbEntity
  8
DRILL
100
AcDbCircle
 10
66.04
 20
73.66
 30
0.0
 40
0.15
  0
CIRCLE
  5
DB21
100
AcDbEntity
  8
DRILL
100
AcDbCircle
 10
66.04
 20
76.2
 30
0.0
 40
0.15
  0
LWPOLYLINE
  5
DB22
100
AcDbEntity
  8
BOTT-PCB
  6
CONTINUOUS
100
AcDbPolyline
 90
        5
 70
     0
 43
0.0
 10
72.18142
 20
57.698559
 42
-0.659262
 10
72.9395
 20
59.4665
 10
74.5405
 20
59.4665
 42
-1.0
 10
74.5405
 20
57.3735
 10
73.812625
 20
57.3735
  0
LWPOLYLINE
  5
DB23
100
AcDbEntity
  8
BOTT-PCB
  6
CONTINUOUS
100
AcDbPolyline
 90
        6
 70
     0
 43
0.0
 10
75.270337
 20
75.45
 42
-0.195374
 10
74.5405
 20
75.1535
 10
72.9395
 20
75.1535
 42
-1.0
 10
72.9395
 20
77.2465
 10
74.5405
 20
77.2465
 42
-0.195374
 10
75.270337
 20
76.95
 42
-0.195374
  0
LWPOLYLINE
  5
DB25
100
AcDbEntity
  8
BOTT-PCB
  6
CONTINUOUS
100
AcDbPolyline
 90
        5
 70
     0
 43
0.0
 10
74.427792
 20
62.4535
 10
72.9395
 20
62.4535
 42
-1.0
 10
72.9395
 20
64.5465
 10
74.5405
 20
64.5465
 42
-0.372156
 10
75.575913
 20
63.651932
 42
-0.372156
  0
LWPOLYLINE
  5
DB26
100
AcDbEntity
  8
BOTT-PCB
  6
CONTINUOUS
100
AcDbPolyline
 90
        6
 70
     0
 43
0.0
 10
72.209663
 20
61.71
 42
-0.195374
 10
72.9395
 20
62.0065
 10
74.5405
 20
62.0065
 42
-1.0
 10
74.5405
 20
59.9135
 10
72.9395
 20
59.9135
 42
-0.195374
 10
72.209663
 20
60.21
 42
-0.195374
  0
CIRCLE
  5
DB27
100
AcDbEntity
  8
DRILL
100
AcDbCircle
 10
73.74
 20
60.96
 30
0.0
 40
0.15
  0
CIRCLE
  5
DB28
100
AcDbEntity
  8
DRILL
100
AcDbCircle
 10
73.74
 20
58.42
 30
0.0
 40
0.15
  0
CIRCLE
  5
DB29
100
AcDbEntity
  8
DRILL
100
AcDbCircle
 10
73.74
 20
66.04
 30
0.0
 40
0.15
  0
CIRCLE
  5
DB2A
100
AcDbEntity
  8
DRILL
100
AcDbCircle
 10
73.74
 20
63.5
 30
0.0
 40
0.15
  0
LWPOLYLINE
  5
DB2B
100
AcDbEntity
  8
BOTT-PCB
  6
CONTINUOUS
100
AcDbPolyline
 90
        6
 70
     0
 43
0.0
 10
75.270337
 20
70.37
 42
-0.195374
 10
74.5405
 20
70.0735
 10
72.9395
 20
70.0735
 42
-1.0
 10
72.9395
 20
72.1665
 10
74.5405
 20
72.1665
 42
-0.195374
 10
75.270337
 20
71.87
 42
-0.195374
  0
LWPOLYLINE
  5
DB2C
100
AcDbEntity
  8
BOTT-PCB
  6
CONTINUOUS
100
AcDbPolyline
 90
        3
 70
     0
 43
0.0
 10
72.209663
 20
69.33
 42
-0.195374
 10
72.9395
 20
69.6265
 10
74.5405
 20
69.6265
  0
CIRCLE
  5
DB2D
100
AcDbEntity
  8
DRILL
100
AcDbCircle
 10
73.74
 20
71.12
 30
0.0
 40
0.15
  0
CIRCLE
  5
DB2E
100
AcDbEntity
  8
DRILL
100
AcDbCircle
 10
73.74
 20
68.58
 30
0.0
 40
0.15
  0
LWPOLYLINE
  5
DB2F
100
AcDbEntity
  8
BOTT-PCB
  6
CONTINUOUS
100
AcDbPolyline
 90
        4
 70
     1
 43
0.0
 10
74.5405
 20
74.7065
 42
-1.0
 10
74.5405
 20
72.6135
 10
72.9395
 20
72.6135
 42
-1.0
 10
72.9395
 20
74.7065
  0
CIRCLE
  5
DB30
100
AcDbEntity
  8
DRILL
100
AcDbCircle
 10
73.74
 20
73.66
 30
0.0
 40
0.15
  0
CIRCLE
  5
DB31
100
AcDbEntity
  8
DRILL
100
AcDbCircle
 10
73.74
 20
76.2
 30
0.0
 40
0.15
  0
LWPOLYLINE
  5
DB33
100
AcDbEntity
  8
BOTT-PCB
  6
CONTINUOUS
100
AcDbPolyline
 90
        3
 70
     0
 43
0.0
 10
51.017668
 20
59.9135
 10
50.0795
 20
59.9135
 42
-0.195374
 10
49.349663
 20
60.21
 42
-0.195374
  0
LWPOLYLINE
  5
DB34
100
AcDbEntity
  8
BOTT-PCB
  6
CONTINUOUS
100
AcDbPolyline
 90
        4
 70
     1
 43
0.0
 10
43.9805
 20
62.0065
 42
-1.0
 10
43.9805
 20
59.9135
 10
42.3795
 20
59.9135
 42
-1.0
 10
42.3795
 20
62.0065
  0
CIRCLE
  5
DB35
100
AcDbEntity
  8
DRILL
100
AcDbCircle
 10
50.88
 20
76.2
 30
0.0
 40
0.15
  0
LWPOLYLINE
  5
DB36
100
AcDbEntity
  8
BOTT-PCB
  6
CONTINUOUS
100
AcDbPolyline
 90
        4
 70
     0
 43
0.0
 10
52.682734
 20
76.501147
 42
-0.502534
 10
51.6805
 20
75.1535
 10
50.0795
 20
75.1535
 42
-0.751131
 10
49.519458
 20
77.084033
  0
CIRCLE
  5
DB37
100
AcDbEntity
  8
DRILL
100
AcDbCircle
 10
50.88
 20
73.66
 30
0.0
 40
0.15
  0
CIRCLE
  5
DB38
100
AcDbEntity
  8
DRILL
100
AcDbCircle
 10
50.88
 20
71.12
 30
0.0
 40
0.15
  0
LWPOLYLINE
  5
DB39
100
AcDbEntity
  8
BOTT-PCB
  6
CONTINUOUS
100
AcDbPolyline
 90
        4
 70
     1
 43
0.0
 10
51.6805
 20
72.1665
 42
-1.0
 10
51.6805
 20
70.0735
 10
50.0795
 20
70.0735
 42
-1.0
 10
50.0795
 20
72.1665
  0
LWPOLYLINE
  5
DB3A
100
AcDbEntity
  8
BOTT-PCB
  6
CONTINUOUS
100
AcDbPolyline
 90
        6
 70
     0
 43
0.0
 10
49.349663
 20
74.41
 42
-0.195374
 10
50.0795
 20
74.7065
 10
51.6805
 20
74.7065
 42
-1.0
 10
51.6805
 20
72.6135
 10
50.0795
 20
72.6135
 42
-0.195374
 10
49.349663
 20
72.91
 42
-0.195374
  0
CIRCLE
  5
DB3B
100
AcDbEntity
  8
DRILL
100
AcDbCircle
 10
50.88
 20
68.58
 30
0.0
 40
0.15
  0
CIRCLE
  5
DB3C
100
AcDbEntity
  8
DRILL
100
AcDbCircle
 10
50.88
 20
66.04
 30
0.0
 40
0.15
  0
LWPOLYLINE
  5
DB3D
100
AcDbEntity
  8
BOTT-PCB
  6
CONTINUOUS
100
AcDbPolyline
 90
        4
 70
     1
 43
0.0
 10
51.6805
 20
67.0865
 42
-1.0
 10
51.6805
 20
64.9935
 10
50.0795
 20
64.9935
 42
-1.0
 10
50.0795
 20
67.0865
  0
LWPOLYLINE
  5
DB3E
100
AcDbEntity
  8
BOTT-PCB
  6
CONTINUOUS
100
AcDbPolyline
 90
        6
 70
     0
 43
0.0
 10
52.410337
 20
67.83
 42
-0.195374
 10
51.6805
 20
67.5335
 10
50.0795
 20
67.5335
 42
-1.0
 10
50.0795
 20
69.6265
 10
51.6805
 20
69.6265
 42
-0.195374
 10
52.410337
 20
69.33
 42
-0.195374
  0
CIRCLE
  5
DB3F
100
AcDbEntity
  8
DRILL
100
AcDbCircle
 10
50.88
 20
63.5
 30
0.0
 40
0.15
  0
CIRCLE
  5
DB40
100
AcDbEntity
  8
DRILL
100
AcDbCircle
 10
50.88
 20
60.96
 30
0.0
 40
0.15
  0
LWPOLYLINE
  5
DB41
100
AcDbEntity
  8
BOTT-PCB
  6
CONTINUOUS
100
AcDbPolyline
 90
        4
 70
     1
 43
0.0
 10
51.6805
 20
64.5465
 42
-1.0
 10
51.6805
 20
62.4535
 10
50.0795
 20
62.4535
 42
-1.0
 10
50.0795
 20
64.5465
  0
LWPOLYLINE
  5
DB42
100
AcDbEntity
  8
BOTT-PCB
  6
CONTINUOUS
100
AcDbPolyline
 90
        4
 70
     1
 43
0.0
 10
43.9805
 20
69.6265
 42
-1.0
 10
43.9805
 20
67.5335
 10
42.3795
 20
67.5335
 42
-1.0
 10
42.3795
 20
69.6265
  0
LWPOLYLINE
  5
DB43
100
AcDbEntity
  8
BOTT-PCB
  6
CONTINUOUS
100
AcDbPolyline
 90
        6
 70
     0
 43
0.0
 10
44.710337
 20
65.29
 42
-0.195374
 10
43.9805
 20
64.9935
 10
42.3795
 20
64.9935
 42
-1.0
 10
42.3795
 20
67.0865
 10
43.9805
 20
67.0865
 42
-0.195374
 10
44.710337
 20
66.79
 42
-0.195374
  0
LWPOLYLINE
  5
DB44
100
AcDbEntity
  8
BOTT-PCB
  6
CONTINUOUS
100
AcDbPolyline
 90
        4
 70
     1
 43
0.0
 10
43.9805
 20
64.5465
 42
-1.0
 10
43.9805
 20
62.4535
 10
42.3795
 20
62.4535
 42
-1.0
 10
42.3795
 20
64.5465
  0
CIRCLE
  5
DB45
100
AcDbEntity
  8
DRILL
100
AcDbCircle
 10
43.18
 20
63.5
 30
0.0
 40
0.15
  0
CIRCLE
  5
DB46
100
AcDbEntity
  8
DRILL
100
AcDbCircle
 10
43.18
 20
60.96
 30
0.0
 40
0.15
  0
CIRCLE
  5
DB47
100
AcDbEntity
  8
DRILL
100
AcDbCircle
 10
43.18
 20
68.58
 30
0.0
 40
0.15
  0
CIRCLE
  5
DB48
100
AcDbEntity
  8
DRILL
100
AcDbCircle
 10
43.18
 20
66.04
 30
0.0
 40
0.15
  0
LWPOLYLINE
  5
DB49
100
AcDbEntity
  8
BOTT-PCB
  6
CONTINUOUS
100
AcDbPolyline
 90
        4
 70
     1
 43
0.0
 10
43.9805
 20
77.2465
 42
-1.0
 10
43.9805
 20
75.1535
 10
42.3795
 20
75.1535
 42
-1.0
 10
42.3795
 20
77.2465
  0
LWPOLYLINE
  5
DB4A
100
AcDbEntity
  8
BOTT-PCB
  6
CONTINUOUS
100
AcDbPolyline
 90
        4
 70
     1
 43
0.0
 10
43.9805
 20
72.1665
 42
-1.0
 10
43.9805
 20
70.0735
 10
42.3795
 20
70.0735
 42
-1.0
 10
42.3795
 20
72.1665
  0
LWPOLYLINE
  5
DB4B
100
AcDbEntity
  8
BOTT-PCB
  6
CONTINUOUS
100
AcDbPolyline
 90
        6
 70
     0
 43
0.0
 10
41.5958
 20
74.353525
 42
-0.214807
 10
42.3795
 20
74.7065
 10
43.9805
 20
74.7065
 42
-1.0
 10
43.9805
 20
72.6135
 10
42.3795
 20
72.6135
 42
-0.174477
 10
41.712596
 20
72.853525
 42
-0.174477
  0
CIRCLE
  5
DB4C
100
AcDbEntity
  8
DRILL
100
AcDbCircle
 10
43.18
 20
73.66
 30
0.0
 40
0.15
  0
CIRCLE
  5
DB4D
100
AcDbEntity
  8
DRILL
100
AcDbCircle
 10
43.18
 20
71.12
 30
0.0
 40
0.15
  0
CIRCLE
  5
DB4E
100
AcDbEntity
  8
DRILL
100
AcDbCircle
 10
43.18
 20
76.2
 30
0.0
 40
0.15
  0
LWPOLYLINE
  5
DB50
100
AcDbEntity
  8
BOTT-PCB
  6
CONTINUOUS
100
AcDbPolyline
 90
        5
 70
     0
 43
0.0
 10
27.19
 20
59.913916
 42
-0.986002
 10
27.2195
 20
62.0065
 10
28.8205
 20
62.0065
 42
-1.0
 10
28.8205
 20
59.9135
 10
28.69
 20
59.9135
  0
LWPOLYLINE
  5
DB51
100
AcDbEntity
  8
BOTT-PCB
  6
CONTINUOUS
100
AcDbPolyline
 90
        6
 70
     0
 43
0.0
 10
18.789663
 20
61.71
 42
-0.195374
 10
19.5195
 20
62.0065
 10
21.1205
 20
62.0065
 42
-1.0
 10
21.1205
 20
59.9135
 10
19.5195
 20
59.9135
 42
-0.195374
 10
18.789663
 20
60.21
 42
-0.195374
  0
CIRCLE
  5
DB52
100
AcDbEntity
  8
DRILL
100
AcDbCircle
 10
28.02
 20
76.2
 30
0.0
 40
0.15
  0
LWPOLYLINE
  5
DB53
100
AcDbEntity
  8
BOTT-PCB
  6
CONTINUOUS
100
AcDbPolyline
 90
        5
 70
     0
 43
0.0
 10
28.69
 20
77.2465
 10
28.8205
 20
77.2465
 42
-1.0
 10
28.8205
 20
75.1535
 10
27.2195
 20
75.1535
 42
-0.986002
 10
27.19
 20
77.246084
 42
-0.986002
  0
CIRCLE
  5
DB54
100
AcDbEntity
  8
DRILL
100
AcDbCircle
 10
28.02
 20
73.66
 30
0.0
 40
0.15
  0
CIRCLE
  5
DB55
100
AcDbEntity
  8
DRILL
100
AcDbCircle
 10
28.02
 20
71.12
 30
0.0
 40
0.15
  0
LWPOLYLINE
  5
DB56
100
AcDbEntity
  8
BOTT-PCB
  6
CONTINUOUS
100
AcDbPolyline
 90
        6
 70
     0
 43
0.0
 10
29.550337
 20
70.37
 42
-0.195374
 10
28.8205
 20
70.0735
 10
27.2195
 20
70.0735
 42
-1.0
 10
27.2195
 20
72.1665
 10
28.8205
 20
72.1665
 42
-0.195374
 10
29.550337
 20
71.87
 42
-0.195374
  0
LWPOLYLINE
  5
DB57
100
AcDbEntity
  8
BOTT-PCB
  6
CONTINUOUS
100
AcDbPolyline
 90
        4
 70
     1
 43
0.0
 10
28.8205
 20
74.7065
 42
-1.0
 10
28.8205
 20
72.6135
 10
27.2195
 20
72.6135
 42
-1.0
 10
27.2195
 20
74.7065
  0
CIRCLE
  5
DB58
100
AcDbEntity
  8
DRILL
100
AcDbCircle
 10
28.02
 20
68.58
 30
0.0
 40
0.15
  0
CIRCLE
  5
DB59
100
AcDbEntity
  8
DRILL
100
AcDbCircle
 10
28.02
 20
66.04
 30
0.0
 40
0.15
  0
LWPOLYLINE
  5
DB5A
100
AcDbEntity
  8
BOTT-PCB
  6
CONTINUOUS
100
AcDbPolyline
 90
        5
 70
     0
 43
0.0
 10
28.707792
 20
64.9935
 10
27.2195
 20
64.9935
 42
-1.0
 10
27.2195
 20
67.0865
 10
28.8205
 20
67.0865
 42
-0.372156
 10
29.855913
 20
66.191932
 42
-0.372156
  0
LWPOLYLINE
  5
DB5B
100
AcDbEntity
  8
BOTT-PCB
  6
CONTINUOUS
100
AcDbPolyline
 90
        4
 70
     1
 43
0.0
 10
28.8205
 20
69.6265
 42
-1.0
 10
28.8205
 20
67.5335
 10
27.2195
 20
67.5335
 42
-1.0
 10
27.2195
 20
69.6265
  0
CIRCLE
  5
DB5C
100
AcDbEntity
  8
DRILL
100
AcDbCircle
 10
28.02
 20
63.5
 30
0.0
 40
0.15
  0
CIRCLE
  5
DB5D
100
AcDbEntity
  8
DRILL
100
AcDbCircle
 10
28.02
 20
60.96
 30
0.0
 40
0.15
  0
LWPOLYLINE
  5
DB5E
100
AcDbEntity
  8
BOTT-PCB
  6
CONTINUOUS
100
AcDbPolyline
 90
        6
 70
     0
 43
0.0
 10
26.489663
 20
64.25
 42
-0.195374
 10
27.2195
 20
64.5465
 10
28.8205
 20
64.5465
 42
-1.0
 10
28.8205
 20
62.4535
 10
27.2195
 20
62.4535
 42
-0.195374
 10
26.489663
 20
62.75
 42
-0.195374
  0
LWPOLYLINE
  5
DB5F
100
AcDbEntity
  8
BOTT-PCB
  6
CONTINUOUS
100
AcDbPolyline
 90
        4
 70
     1
 43
0.0
 10
21.1205
 20
69.6265
 42
-1.0
 10
21.1205
 20
67.5335
 10
19.5195
 20
67.5335
 42
-1.0
 10
19.5195
 20
69.6265
  0
LWPOLYLINE
  5
DB60
100
AcDbEntity
  8
BOTT-PCB
  6
CONTINUOUS
100
AcDbPolyline
 90
        4
 70
     1
 43
0.0
 10
21.1205
 20
67.0865
 42
-1.0
 10
21.1205
 20
64.9935
 10
19.5195
 20
64.9935
 42
-1.0
 10
19.5195
 20
67.0865
  0
LWPOLYLINE
  5
DB61
100
AcDbEntity
  8
BOTT-PCB
  6
CONTINUOUS
100
AcDbPolyline
 90
        4
 70
     1
 43
0.0
 10
21.1205
 20
64.5465
 42
-1.0
 10
21.1205
 20
62.4535
 10
19.5195
 20
62.4535
 42
-1.0
 10
19.5195
 20
64.5465
  0
CIRCLE
  5
DB62
100
AcDbEntity
  8
DRILL
100
AcDbCircle
 10
20.32
 20
63.5
 30
0.0
 40
0.15
  0
CIRCLE
  5
DB63
100
AcDbEntity
  8
DRILL
100
AcDbCircle
 10
20.32
 20
60.96
 30
0.0
 40
0.15
  0
CIRCLE
  5
DB64
100
AcDbEntity
  8
DRILL
100
AcDbCircle
 10
20.32
 20
68.58
 30
0.0
 40
0.15
  0
CIRCLE
  5
DB65
100
AcDbEntity
  8
DRILL
100
AcDbCircle
 10
20.32
 20
66.04
 30
0.0
 40
0.15
  0
LWPOLYLINE
  5
DB66
100
AcDbEntity
  8
BOTT-PCB
  6
CONTINUOUS
100
AcDbPolyline
 90
        4
 70
     1
 43
0.0
 10
21.1205
 20
77.2465
 42
-1.0
 10
21.1205
 20
75.1535
 10
19.5195
 20
75.1535
 42
-1.0
 10
19.5195
 20
77.2465
  0
LWPOLYLINE
  5
DB67
100
AcDbEntity
  8
BOTT-PCB
  6
CONTINUOUS
100
AcDbPolyline
 90
        4
 70
     1
 43
0.0
 10
21.1205
 20
72.1665
 42
-1.0
 10
21.1205
 20
70.0735
 10
19.5195
 20
70.0735
 42
-1.0
 10
19.5195
 20
72.1665
  0
LWPOLYLINE
  5
DB68
100
AcDbEntity
  8
BOTT-PCB
  6
CONTINUOUS
100
AcDbPolyline
 90
        4
 70
     1
 43
0.0
 10
21.1205
 20
74.7065
 42
-1.0
 10
21.1205
 20
72.6135
 10
19.5195
 20
72.6135
 42
-1.0
 10
19.5195
 20
74.7065
  0
CIRCLE
  5
DB69
100
AcDbEntity
  8
DRILL
100
AcDbCircle
 10
20.32
 20
73.66
 30
0.0
 40
0.15
  0
CIRCLE
  5
DB6A
100
AcDbEntity
  8
DRILL
100
AcDbCircle
 10
20.32
 20
71.12
 30
0.0
 40
0.15
  0
CIRCLE
  5
DB6B
100
AcDbEntity
  8
DRILL
100
AcDbCircle
 10
20.32
 20
76.2
 30
0.0
 40
0.15
  0
ARC
  5
DB8B
100
AcDbEntity
  8
BOTT-PCB
100
AcDbCircle
 10
68.5495
 20
35.554
 30
0.0
 40
1.25
100
AcDbArc
 50
216.526891
 51
142.785549
  0
CIRCLE
  5
DB8D
100
AcDbEntity
  8
DRILL
100
AcDbCircle
 10
68.5495
 20
35.554
 30
0.0
 40
0.15
  0
CIRCLE
  5
DB90
100
AcDbEntity
  8
BOTT-PCB
100
AcDbCircle
 10
68.5495
 20
33.013
 30
0.0
 40
1.25
  0
CIRCLE
  5
DB92
100
AcDbEntity
  8
DRILL
100
AcDbCircle
 10
68.5495
 20
33.013
 30
0.0
 40
0.15
  0
ARC
  5
DB95
100
AcDbEntity
  8
BOTT-PCB
100
AcDbCircle
 10
68.588
 20
30.51
 30
0.0
 40
1.25
100
AcDbArc
 50
218.608828
 51
144.830307
  0
CIRCLE
  5
DB97
100
AcDbEntity
  8
DRILL
100
AcDbCircle
 10
68.588
 20
30.51
 30
0.0
 40
0.15
  0
ARC
  5
DB9A
100
AcDbEntity
  8
BOTT-PCB
100
AcDbCircle
 10
68.588
 20
27.969
 30
0.0
 40
1.25
100
AcDbArc
 50
62.16424
 51
348.402943
  0
CIRCLE
  5
DB9C
100
AcDbEntity
  8
DRILL
100
AcDbCircle
 10
68.588
 20
27.969
 30
0.0
 40
0.15
  0
LWPOLYLINE
  5
DBCE
100
AcDbEntity
  8
BOTT-PCB
  6
CONTINUOUS
100
AcDbPolyline
 90
        4
 70
     1
 43
0.0
 10
44.6735
 20
16.0405
 42
-1.0
 10
46.7665
 20
16.0405
 10
46.7665
 20
14.4395
 42
-1.0
 10
44.6735
 20
14.4395
  0
CIRCLE
  5
DBCF
100
AcDbEntity
  8
DRILL
100
AcDbCircle
 10
45.72
 20
15.24
 30
0.0
 40
0.15
  0
CIRCLE
  5
DBD0
100
AcDbEntity
  8
DRILL
100
AcDbCircle
 10
48.26
 20
15.24
 30
0.0
 40
0.15
  0
LWPOLYLINE
  5
DBD1
100
AcDbEntity
  8
BOTT-PCB
  6
CONTINUOUS
100
AcDbPolyline
 90
        6
 70
     0
 43
0.0
 10
49.01
 20
16.770337
 42
-0.195374
 10
49.3065
 20
16.0405
 10
49.3065
 20
14.4395
 42
-1.0
 10
47.2135
 20
14.4395
 10
47.2135
 20
16.0405
 42
-0.195374
 10
47.51
 20
16.770337
 42
-0.195374
  0
CIRCLE
  5
DBD2
100
AcDbEntity
  8
DRILL
100
AcDbCircle
 10
43.18
 20
15.24
 30
0.0
 40
0.15
  0
LWPOLYLINE
  5
DBD3
100
AcDbEntity
  8
BOTT-PCB
  6
CONTINUOUS
100
AcDbPolyline
 90
        4
 70
     1
 43
0.0
 10
42.1335
 20
16.0405
 42
-1.0
 10
44.2265
 20
16.0405
 10
44.2265
 20
14.4395
 42
-1.0
 10
42.1335
 20
14.4395
  0
LWPOLYLINE
  5
DBD5
100
AcDbEntity
  8
BOTT-PCB
  6
CONTINUOUS
100
AcDbPolyline
 90
        4
 70
     1
 43
0.0
 10
26.8935
 20
51.6005
 42
-1.0
 10
28.9865
 20
51.6005
 10
28.9865
 20
49.9995
 42
-1.0
 10
26.8935
 20
49.9995
  0
CIRCLE
  5
DBD6
100
AcDbEntity
  8
DRILL
100
AcDbCircle
 10
27.94
 20
50.8
 30
0.0
 40
0.15
  0
CIRCLE
  5
DBD7
100
AcDbEntity
  8
DRILL
100
AcDbCircle
 10
30.48
 20
50.8
 30
0.0
 40
0.15
  0
LWPOLYLINE
  5
DBD8
100
AcDbEntity
  8
BOTT-PCB
  6
CONTINUOUS
100
AcDbPolyline
 90
        6
 70
     0
 43
0.0
 10
31.23
 20
52.330337
 42
-0.195374
 10
31.5265
 20
51.6005
 10
31.5265
 20
49.9995
 42
-1.0
 10
29.4335
 20
49.9995
 10
29.4335
 20
51.6005
 42
-0.195374
 10
29.73
 20
52.330337
 42
-0.195374
  0
CIRCLE
  5
DBD9
100
AcDbEntity
  8
DRILL
100
AcDbCircle
 10
25.4
 20
50.8
 30
0.0
 40
0.15
  0
LWPOLYLINE
  5
DBDA
100
AcDbEntity
  8
BOTT-PCB
  6
CONTINUOUS
100
AcDbPolyline
 90
        4
 70
     1
 43
0.0
 10
24.3535
 20
51.6005
 42
-1.0
 10
26.4465
 20
51.6005
 10
26.4465
 20
49.9995
 42
-1.0
 10
24.3535
 20
49.9995
  0
LWPOLYLINE
  5
DBDC
100
AcDbEntity
  8
BOTT-PCB
  6
CONTINUOUS
100
AcDbPolyline
 90
        6
 70
     0
 43
0.0
 10
36.31
 20
52.330337
 42
-0.195374
 10
36.6065
 20
51.6005
 10
36.6065
 20
49.9995
 42
-1.0
 10
34.5135
 20
49.9995
 10
34.5135
 20
51.6005
 42
-0.195374
 10
34.81
 20
52.330337
 42
-0.195374
  0
CIRCLE
  5
DBDD
100
AcDbEntity
  8
DRILL
100
AcDbCircle
 10
35.56
 20
50.8
 30
0.0
 40
0.15
  0
CIRCLE
  5
DBDE
100
AcDbEntity
  8
DRILL
100
AcDbCircle
 10
38.1
 20
50.8
 30
0.0
 40
0.15
  0
LWPOLYLINE
  5
DBDF
100
AcDbEntity
  8
BOTT-PCB
  6
CONTINUOUS
100
AcDbPolyline
 90
        4
 70
     1
 43
0.0
 10
37.0535
 20
51.6005
 42
-1.0
 10
39.1465
 20
51.6005
 10
39.1465
 20
49.9995
 42
-1.0
 10
37.0535
 20
49.9995
  0
CIRCLE
  5
DBE0
100
AcDbEntity
  8
DRILL
100
AcDbCircle
 10
33.02
 20
50.8
 30
0.0
 40
0.15
  0
LWPOLYLINE
  5
DBE1
100
AcDbEntity
  8
BOTT-PCB
  6
CONTINUOUS
100
AcDbPolyline
 90
        6
 70
     0
 43
0.0
 10
33.77
 20
52.330337
 42
-0.195374
 10
34.0665
 20
51.6005
 10
34.0665
 20
49.9995
 42
-1.0
 10
31.9735
 20
49.9995
 10
31.9735
 20
51.6005
 42
-0.195374
 10
32.27
 20
52.330337
 42
-0.195374
  0
LWPOLYLINE
  5
DBE3
100
AcDbEntity
  8
BOTT-PCB
  6
CONTINUOUS
100
AcDbPolyline
 90
        6
 70
     0
 43
0.0
 10
43.93
 20
52.330337
 42
-0.195374
 10
44.2265
 20
51.6005
 10
44.2265
 20
49.9995
 42
-1.0
 10
42.1335
 20
49.9995
 10
42.1335
 20
51.6005
 42
-0.195374
 10
42.43
 20
52.330337
 42
-0.195374
  0
CIRCLE
  5
DBE4
100
AcDbEntity
  8
DRILL
100
AcDbCircle
 10
43.18
 20
50.8
 30
0.0
 40
0.15
  0
CIRCLE
  5
DBE5
100
AcDbEntity
  8
DRILL
100
AcDbCircle
 10
45.72
 20
50.8
 30
0.0
 40
0.15
  0
CIRCLE
  5
DBE7
100
AcDbEntity
  8
DRILL
100
AcDbCircle
 10
40.64
 20
50.8
 30
0.0
 40
0.15
  0
LWPOLYLINE
  5
DBE8
100
AcDbEntity
  8
BOTT-PCB
  6
CONTINUOUS
100
AcDbPolyline
 90
        4
 70
     1
 43
0.0
 10
39.5935
 20
51.6005
 42
-1.0
 10
41.6865
 20
51.6005
 10
41.6865
 20
49.9995
 42
-1.0
 10
39.5935
 20
49.9995
  0
LWPOLYLINE
  5
DBEA
100
AcDbEntity
  8
BOTT-PCB
  6
CONTINUOUS
100
AcDbPolyline
 90
        4
 70
     1
 43
0.0
 10
49.7535
 20
51.6005
 42
-1.0
 10
51.8465
 20
51.6005
 10
51.8465
 20
49.9995
 42
-1.0
 10
49.7535
 20
49.9995
  0
CIRCLE
  5
DBEB
100
AcDbEntity
  8
DRILL
100
AcDbCircle
 10
50.8
 20
50.8
 30
0.0
 40
0.15
  0
CIRCLE
  5
DBEC
100
AcDbEntity
  8
DRILL
100
AcDbCircle
 10
53.34
 20
50.8
 30
0.0
 40
0.15
  0
LWPOLYLINE
  5
DBED
100
AcDbEntity
  8
BOTT-PCB
  6
CONTINUOUS
100
AcDbPolyline
 90
        4
 70
     1
 43
0.0
 10
52.2935
 20
51.6005
 42
-1.0
 10
54.3865
 20
51.6005
 10
54.3865
 20
49.9995
 42
-1.0
 10
52.2935
 20
49.9995
  0
CIRCLE
  5
DBEE
100
AcDbEntity
  8
DRILL
100
AcDbCircle
 10
48.26
 20
50.8
 30
0.0
 40
0.15
  0
LWPOLYLINE
  5
DBEF
100
AcDbEntity
  8
BOTT-PCB
  6
CONTINUOUS
100
AcDbPolyline
 90
        4
 70
     1
 43
0.0
 10
47.2135
 20
51.6005
 42
-1.0
 10
49.3065
 20
51.6005
 10
49.3065
 20
49.9995
 42
-1.0
 10
47.2135
 20
49.9995
  0
LWPOLYLINE
  5
DBF1
100
AcDbEntity
  8
BOTT-PCB
  6
CONTINUOUS
100
AcDbPolyline
 90
        4
 70
     1
 43
0.0
 10
57.3735
 20
51.6005
 42
-1.0
 10
59.4665
 20
51.6005
 10
59.4665
 20
49.9995
 42
-1.0
 10
57.3735
 20
49.9995
  0
CIRCLE
  5
DBF2
100
AcDbEntity
  8
DRILL
100
AcDbCircle
 10
58.42
 20
50.8
 30
0.0
 40
0.15
  0
CIRCLE
  5
DBF5
100
AcDbEntity
  8
DRILL
100
AcDbCircle
 10
55.88
 20
50.8
 30
0.0
 40
0.15
  0
LWPOLYLINE
  5
DBF6
100
AcDbEntity
  8
BOTT-PCB
  6
CONTINUOUS
100
AcDbPolyline
 90
        4
 70
     1
 43
0.0
 10
54.8335
 20
51.6005
 42
-1.0
 10
56.9265
 20
51.6005
 10
56.9265
 20
49.9995
 42
-1.0
 10
54.8335
 20
49.9995
  0
LWPOLYLINE
  5
DBF8
100
AcDbEntity
  8
BOTT-PCB
  6
CONTINUOUS
100
AcDbPolyline
 90
        4
 70
     1
 43
0.0
 10
52.2935
 20
16.0405
 42
-1.0
 10
54.3865
 20
16.0405
 10
54.3865
 20
14.4395
 42
-1.0
 10
52.2935
 20
14.4395
  0
CIRCLE
  5
DBF9
100
AcDbEntity
  8
DRILL
100
AcDbCircle
 10
53.34
 20
15.24
 30
0.0
 40
0.15
  0
CIRCLE
  5
DBFC
100
AcDbEntity
  8
DRILL
100
AcDbCircle
 10
50.8
 20
15.24
 30
0.0
 40
0.15
  0
LWPOLYLINE
  5
DBFD
100
AcDbEntity
  8
BOTT-PCB
  6
CONTINUOUS
100
AcDbPolyline
 90
        5
 70
     0
 43
0.0
 10
51.8465
 20
16.007792
 10
51.8465
 20
14.4395
 42
-1.0
 10
49.7535
 20
14.4395
 10
49.7535
 20
16.0405
 42
-0.364414
 10
50.619892
 20
17.071385
 42
-0.364414
  0
LWPOLYLINE
  5
DBFF
100
AcDbEntity
  8
BOTT-PCB
  6
CONTINUOUS
100
AcDbPolyline
 90
        4
 70
     1
 43
0.0
 10
62.6995
 20
47.2135
 42
-1.0
 10
62.6995
 20
49.3065
 10
64.3005
 20
49.3065
 42
-1.0
 10
64.3005
 20
47.2135
  0
CIRCLE
  5
DC00
100
AcDbEntity
  8
DRILL
100
AcDbCircle
 10
63.5
 20
48.26
 30
0.0
 40
0.15
  0
CIRCLE
  5
DC01
100
AcDbEntity
  8
DRILL
100
AcDbCircle
 10
63.5
 20
50.8
 30
0.0
 40
0.15
  0
LWPOLYLINE
  5
DC02
100
AcDbEntity
  8
BOTT-PCB
  6
CONTINUOUS
100
AcDbPolyline
 90
        4
 70
     1
 43
0.0
 10
62.6995
 20
49.7535
 42
-1.0
 10
62.6995
 20
51.8465
 10
64.3005
 20
51.8465
 42
-1.0
 10
64.3005
 20
49.7535
  0
CIRCLE
  5
DC03
100
AcDbEntity
  8
DRILL
100
AcDbCircle
 10
63.5
 20
45.72
 30
0.0
 40
0.15
  0
LWPOLYLINE
  5
DC04
100
AcDbEntity
  8
BOTT-PCB
  6
CONTINUOUS
100
AcDbPolyline
 90
        4
 70
     1
 43
0.0
 10
62.6995
 20
44.6735
 42
-1.0
 10
62.6995
 20
46.7665
 10
64.3005
 20
46.7665
 42
-1.0
 10
64.3005
 20
44.6735
  0
LWPOLYLINE
  5
DC06
100
AcDbEntity
  8
BOTT-PCB
  6
CONTINUOUS
100
AcDbPolyline
 90
        4
 70
     1
 43
0.0
 10
62.6995
 20
24.3535
 42
-1.0
 10
62.6995
 20
26.4465
 10
64.3005
 20
26.4465
 42
-1.0
 10
64.3005
 20
24.3535
  0
CIRCLE
  5
DC07
100
AcDbEntity
  8
DRILL
100
AcDbCircle
 10
63.5
 20
25.4
 30
0.0
 40
0.15
  0
CIRCLE
  5
DC08
100
AcDbEntity
  8
DRILL
100
AcDbCircle
 10
63.5
 20
27.94
 30
0.0
 40
0.15
  0
LWPOLYLINE
  5
DC09
100
AcDbEntity
  8
BOTT-PCB
  6
CONTINUOUS
100
AcDbPolyline
 90
        6
 70
     0
 43
0.0
 10
64.25
 20
28.9865
 10
64.3005
 20
28.9865
 42
-1.0
 10
64.3005
 20
26.8935
 10
62.6995
 20
26.8935
 42
-1.0
 10
62.6995
 20
28.9865
 10
62.75
 20
28.9865
  0
CIRCLE
  5
DC0A
100
AcDbEntity
  8
DRILL
100
AcDbCircle
 10
63.5
 20
22.86
 30
0.0
 40
0.15
  0
LWPOLYLINE
  5
DC0B
100
AcDbEntity
  8
BOTT-PCB
  6
CONTINUOUS
100
AcDbPolyline
 90
        6
 70
     0
 43
0.0
 10
65.030337
 20
22.11
 42
-0.195374
 10
64.3005
 20
21.8135
 10
62.6995
 20
21.8135
 42
-1.0
 10
62.6995
 20
23.9065
 10
64.3005
 20
23.9065
 42
-0.195374
 10
65.030337
 20
23.61
 42
-0.195374
  0
LWPOLYLINE
  5
DC0D
100
AcDbEntity
  8
BOTT-PCB
  6
CONTINUOUS
100
AcDbPolyline
 90
        4
 70
     1
 43
0.0
 10
24.5995
 20
37.0535
 42
-1.0
 10
24.5995
 20
39.1465
 10
26.2005
 20
39.1465
 42
-1.0
 10
26.2005
 20
37.0535
  0
CIRCLE
  5
DC0E
100
AcDbEntity
  8
DRILL
100
AcDbCircle
 10
25.4
 20
38.1
 30
0.0
 40
0.15
  0
CIRCLE
  5
DC0F
100
AcDbEntity
  8
DRILL
100
AcDbCircle
 10
25.4
 20
40.64
 30
0.0
 40
0.15
  0
LWPOLYLINE
  5
DC10
100
AcDbEntity
  8
BOTT-PCB
  6
CONTINUOUS
100
AcDbPolyline
 90
        6
 70
     0
 43
0.0
 10
23.869663
 20
41.39
 42
-0.195374
 10
24.5995
 20
41.6865
 10
26.2005
 20
41.6865
 42
-1.0
 10
26.2005
 20
39.5935
 10
24.5995
 20
39.5935
 42
-0.195374
 10
23.869663
 20
39.89
 42
-0.195374
  0
CIRCLE
  5
DC11
100
AcDbEntity
  8
DRILL
100
AcDbCircle
 10
25.4
 20
35.56
 30
0.0
 40
0.15
  0
LWPOLYLINE
  5
DC12
100
AcDbEntity
  8
BOTT-PCB
  6
CONTINUOUS
100
AcDbPolyline
 90
        6
 70
     0
 43
0.0
 10
23.869663
 20
36.31
 42
-0.195374
 10
24.5995
 20
36.6065
 10
26.2005
 20
36.6065
 42
-1.0
 10
26.2005
 20
34.5135
 10
24.5995
 20
34.5135
 42
-0.195374
 10
23.869663
 20
34.81
 42
-0.195374
  0
LWPOLYLINE
  5
DC14
100
AcDbEntity
  8
BOTT-PCB
  6
CONTINUOUS
100
AcDbPolyline
 90
        6
 70
     0
 43
0.0
 10
23.869663
 20
31.23
 42
-0.195374
 10
24.5995
 20
31.5265
 10
26.2005
 20
31.5265
 42
-1.0
 10
26.2005
 20
29.4335
 10
24.5995
 20
29.4335
 42
-0.195374
 10
23.869663
 20
29.73
 42
-0.195374
  0
CIRCLE
  5
DC15
100
AcDbEntity
  8
DRILL
100
AcDbCircle
 10
25.4
 20
30.48
 30
0.0
 40
0.15
  0
CIRCLE
  5
DC16
100
AcDbEntity
  8
DRILL
100
AcDbCircle
 10
25.4
 20
33.02
 30
0.0
 40
0.15
  0
LWPOLYLINE
  5
DC17
100
AcDbEntity
  8
BOTT-PCB
  6
CONTINUOUS
100
AcDbPolyline
 90
        6
 70
     0
 43
0.0
 10
23.869663
 20
33.77
 42
-0.195374
 10
24.5995
 20
34.0665
 10
26.2005
 20
34.0665
 42
-1.0
 10
26.2005
 20
31.9735
 10
24.5995
 20
31.9735
 42
-0.195374
 10
23.869663
 20
32.27
 42
-0.195374
  0
CIRCLE
  5
DC18
100
AcDbEntity
  8
DRILL
100
AcDbCircle
 10
25.4
 20
27.94
 30
0.0
 40
0.15
  0
LWPOLYLINE
  5
DC19
100
AcDbEntity
  8
BOTT-PCB
  6
CONTINUOUS
100
AcDbPolyline
 90
        4
 70
     1
 43
0.0
 10
24.5995
 20
26.8935
 42
-1.0
 10
24.5995
 20
28.9865
 10
26.2005
 20
28.9865
 42
-1.0
 10
26.2005
 20
26.8935
  0
LWPOLYLINE
  5
DC1B
100
AcDbEntity
  8
BOTT-PCB
  6
CONTINUOUS
100
AcDbPolyline
 90
        4
 70
     1
 43
0.0
 10
24.5995
 20
21.8135
 42
-1.0
 10
24.5995
 20
23.9065
 10
26.2005
 20
23.9065
 42
-1.0
 10
26.2005
 20
21.8135
  0
CIRCLE
  5
DC1C
100
AcDbEntity
  8
DRILL
100
AcDbCircle
 10
25.4
 20
22.86
 30
0.0
 40
0.15
  0
CIRCLE
  5
DC1D
100
AcDbEntity
  8
DRILL
100
AcDbCircle
 10
25.4
 20
25.4
 30
0.0
 40
0.15
  0
LWPOLYLINE
  5
DC1E
100
AcDbEntity
  8
BOTT-PCB
  6
CONTINUOUS
100
AcDbPolyline
 90
        4
 70
     1
 43
0.0
 10
24.5995
 20
24.3535
 42
-1.0
 10
24.5995
 20
26.4465
 10
26.2005
 20
26.4465
 42
-1.0
 10
26.2005
 20
24.3535
  0
CIRCLE
  5
DC1F
100
AcDbEntity
  8
DRILL
100
AcDbCircle
 10
25.4
 20
20.32
 30
0.0
 40
0.15
  0
LWPOLYLINE
  5
DC20
100
AcDbEntity
  8
BOTT-PCB
  6
CONTINUOUS
100
AcDbPolyline
 90
        6
 70
     0
 43
0.0
 10
23.869663
 20
21.07
 42
-0.195374
 10
24.5995
 20
21.3665
 10
26.2005
 20
21.3665
 42
-1.0
 10
26.2005
 20
19.2735
 10
24.5995
 20
19.2735
 42
-0.195374
 10
23.869663
 20
19.57
 42
-0.195374
  0
LWPOLYLINE
  5
DC22
100
AcDbEntity
  8
BOTT-PCB
  6
CONTINUOUS
100
AcDbPolyline
 90
        6
 70
     0
 43
0.0
 10
70.110337
 20
14.49
 42
-0.195374
 10
69.3805
 20
14.1935
 10
67.7795
 20
14.1935
 42
-1.0
 10
67.7795
 20
16.2865
 10
69.3805
 20
16.2865
 42
-0.195374
 10
70.110337
 20
15.99
 42
-0.195374
  0
CIRCLE
  5
DC23
100
AcDbEntity
  8
DRILL
100
AcDbCircle
 10
68.58
 20
15.24
 30
0.0
 40
0.15
  0
CIRCLE
  5
DC24
100
AcDbEntity
  8
DRILL
100
AcDbCircle
 10
68.58
 20
17.78
 30
0.0
 40
0.15
  0
LWPOLYLINE
  5
DC25
100
AcDbEntity
  8
BOTT-PCB
  6
CONTINUOUS
100
AcDbPolyline
 90
        4
 70
     1
 43
0.0
 10
67.7795
 20
16.7335
 42
-1.0
 10
67.7795
 20
18.8265
 10
69.3805
 20
18.8265
 42
-1.0
 10
69.3805
 20
16.7335
  0
CIRCLE
  5
DC26
100
AcDbEntity
  8
DRILL
100
AcDbCircle
 10
68.58
 20
12.7
 30
0.0
 40
0.15
  0
LWPOLYLINE
  5
DC27
100
AcDbEntity
  8
BOTT-PCB
  6
CONTINUOUS
100
AcDbPolyline
 90
        6
 70
     0
 43
0.0
 10
67.83
 20
11.6535
 10
67.7795
 20
11.6535
 42
-1.0
 10
67.7795
 20
13.7465
 10
69.3805
 20
13.7465
 42
-1.0
 10
69.3805
 20
11.6535
 10
69.33
 20
11.6535
  0
LWPOLYLINE
  5
DC2E
100
AcDbEntity
  8
BOTT-PCB
  6
CONTINUOUS
100
AcDbPolyline
 90
        4
 70
     1
 43
0.0
 10
59.969
 20
16.04
 42
-1.0
 10
62.062
 20
16.04
 10
62.062
 20
14.439
 42
-1.0
 10
59.969
 20
14.439
  0
CIRCLE
  5
DC2F
100
AcDbEntity
  8
DRILL
100
AcDbCircle
 10
61.0155
 20
15.2395
 30
0.0
 40
0.15
  0
LWPOLYLINE
  5
DC34
100
AcDbEntity
  8
BOTT-PCB
  6
CONTINUOUS
100
AcDbPolyline
 90
        6
 70
     0
 43
0.0
 10
61.969663
 20
21.07
 42
-0.195374
 10
62.6995
 20
21.3665
 10
64.3005
 20
21.3665
 42
-1.0
 10
64.3005
 20
19.2735
 10
62.6995
 20
19.2735
 42
-0.195374
 10
61.969663
 20
19.57
 42
-0.195374
  0
CIRCLE
  5
DC35
100
AcDbEntity
  8
DRILL
100
AcDbCircle
 10
63.5
 20
20.32
 30
0.0
 40
0.15
  0
CIRCLE
  5
DC38
100
AcDbEntity
  8
DRILL
100
AcDbCircle
 10
25.4
 20
17.78
 30
0.0
 40
0.15
  0
LWPOLYLINE
  5
DC3A
100
AcDbEntity
  8
BOTT-PCB
  6
CONTINUOUS
100
AcDbPolyline
 90
        6
 70
     0
 43
0.0
 10
1.530337
 20
66.56
 42
-0.195374
 10
0.8005
 20
66.2635
 10
-0.8005
 20
66.2635
 42
-1.0
 10
-0.8005
 20
68.3565
 10
0.8005
 20
68.3565
 42
-0.195374
 10
1.530337
 20
68.06
 42
-0.195374
  0
CIRCLE
  5
DC3B
100
AcDbEntity
  8
DRILL
100
AcDbCircle
 10
0.0
 20
67.31
 30
0.0
 40
0.15
  0
LWPOLYLINE
  5
DC3D
100
AcDbEntity
  8
BOTT-PCB
  6
CONTINUOUS
100
AcDbPolyline
 90
        6
 70
     0
 43
0.0
 10
1.530337
 20
64.02
 42
-0.195374
 10
0.8005
 20
63.7235
 10
-0.8005
 20
63.7235
 42
-1.0
 10
-0.8005
 20
65.8165
 10
0.8005
 20
65.8165
 42
-0.195374
 10
1.530337
 20
65.52
 42
-0.195374
  0
CIRCLE
  5
DC3E
100
AcDbEntity
  8
DRILL
100
AcDbCircle
 10
0.0
 20
64.77
 30
0.0
 40
0.15
  0
LWPOLYLINE
  5
DC40
100
AcDbEntity
  8
BOTT-PCB
  6
CONTINUOUS
100
AcDbPolyline
 90
        6
 70
     0
 43
0.0
 10
1.530337
 20
61.48
 42
-0.195374
 10
0.8005
 20
61.1835
 10
-0.8005
 20
61.1835
 42
-1.0
 10
-0.8005
 20
63.2765
 10
0.8005
 20
63.2765
 42
-0.195374
 10
1.530337
 20
62.98
 42
-0.195374
  0
CIRCLE
  5
DC41
100
AcDbEntity
  8
DRILL
100
AcDbCircle
 10
0.0
 20
62.23
 30
0.0
 40
0.15
  0
LWPOLYLINE
  5
DC43
100
AcDbEntity
  8
BOTT-PCB
  6
CONTINUOUS
100
AcDbPolyline
 90
        6
 70
     0
 43
0.0
 10
1.530337
 20
58.94
 42
-0.195374
 10
0.8005
 20
58.6435
 10
-0.8005
 20
58.6435
 42
-1.0
 10
-0.8005
 20
60.7365
 10
0.8005
 20
60.7365
 42
-0.195374
 10
1.530337
 20
60.44
 42
-0.195374
  0
CIRCLE
  5
DC44
100
AcDbEntity
  8
DRILL
100
AcDbCircle
 10
0.0
 20
59.69
 30
0.0
 40
0.15
  0
LWPOLYLINE
  5
DC46
100
AcDbEntity
  8
BOTT-PCB
  6
CONTINUOUS
100
AcDbPolyline
 90
        6
 70
     0
 43
0.0
 10
1.530337
 20
56.4
 42
-0.195374
 10
0.8005
 20
56.1035
 10
-0.8005
 20
56.1035
 42
-1.0
 10
-0.8005
 20
58.1965
 10
0.8005
 20
58.1965
 42
-0.195374
 10
1.530337
 20
57.9
 42
-0.195374
  0
CIRCLE
  5
DC47
100
AcDbEntity
  8
DRILL
100
AcDbCircle
 10
0.0
 20
57.15
 30
0.0
 40
0.15
  0
LWPOLYLINE
  5
DC49
100
AcDbEntity
  8
BOTT-PCB
  6
CONTINUOUS
100
AcDbPolyline
 90
        4
 70
     1
 43
0.0
 10
-0.8005
 20
53.5635
 42
-1.0
 10
-0.8005
 20
55.6565
 10
0.8005
 20
55.6565
 42
-1.0
 10
0.8005
 20
53.5635
  0
CIRCLE
  5
DC4A
100
AcDbEntity
  8
DRILL
100
AcDbCircle
 10
0.0
 20
54.61
 30
0.0
 40
0.15
  0
LWPOLYLINE
  5
DC4C
100
AcDbEntity
  8
BOTT-PCB
  6
CONTINUOUS
100
AcDbPolyline
 90
        6
 70
     0
 43
0.0
 10
-0.75
 20
51.0235
 10
-0.8005
 20
51.0235
 42
-1.0
 10
-0.8005
 20
53.1165
 10
0.8005
 20
53.1165
 42
-1.0
 10
0.8005
 20
51.0235
 10
0.75
 20
51.0235
  0
CIRCLE
  5
DC4D
100
AcDbEntity
  8
DRILL
100
AcDbCircle
 10
0.0
 20
52.07
 30
0.0
 40
0.15
  0
LWPOLYLINE
  5
DC4F
100
AcDbEntity
  8
BOTT-PCB
  6
CONTINUOUS
100
AcDbPolyline
 90
        4
 70
     0
 43
0.0
 10
0.75
 20
50.5765
 10
0.8005
 20
50.5765
 42
-1.0
 10
0.8005
 20
48.4835
 10
0.75
 20
48.4835
  0
CIRCLE
  5
DC50
100
AcDbEntity
  8
DRILL
100
AcDbCircle
 10
0.0
 20
49.53
 30
0.0
 40
0.15
  0
LWPOLYLINE
  5
DC52
100
AcDbEntity
  8
BOTT-PCB
  6
CONTINUOUS
100
AcDbPolyline
 90
        3
 70
     0
 43
0.0
 10
0.75
 20
44.2265
 10
0.8005
 20
44.2265
 42
-0.195374
 10
1.530337
 20
43.93
 42
-0.195374
  0
CIRCLE
  5
DC53
100
AcDbEntity
  8
DRILL
100
AcDbCircle
 10
0.0
 20
43.18
 30
0.0
 40
0.15
  0
LWPOLYLINE
  5
DC55
100
AcDbEntity
  8
BOTT-PCB
  6
CONTINUOUS
100
AcDbPolyline
 90
        6
 70
     0
 43
0.0
 10
1.530337
 20
39.89
 42
-0.195374
 10
0.8005
 20
39.5935
 10
-0.8005
 20
39.5935
 42
-1.0
 10
-0.8005
 20
41.6865
 10
0.8005
 20
41.6865
 42
-0.195374
 10
1.530337
 20
41.39
 42
-0.195374
  0
CIRCLE
  5
DC56
100
AcDbEntity
  8
DRILL
100
AcDbCircle
 10
0.0
 20
40.64
 30
0.0
 40
0.15
  0
LWPOLYLINE
  5
DC58
100
AcDbEntity
  8
BOTT-PCB
  6
CONTINUOUS
100
AcDbPolyline
 90
        6
 70
     0
 43
0.0
 10
1.530337
 20
37.35
 42
-0.195374
 10
0.8005
 20
37.0535
 10
-0.8005
 20
37.0535
 42
-1.0
 10
-0.8005
 20
39.1465
 10
0.8005
 20
39.1465
 42
-0.195374
 10
1.530337
 20
38.85
 42
-0.195374
  0
CIRCLE
  5
DC59
100
AcDbEntity
  8
DRILL
100
AcDbCircle
 10
0.0
 20
38.1
 30
0.0
 40
0.15
  0
LWPOLYLINE
  5
DC5B
100
AcDbEntity
  8
BOTT-PCB
  6
CONTINUOUS
100
AcDbPolyline
 90
        6
 70
     0
 43
0.0
 10
1.530337
 20
34.81
 42
-0.195374
 10
0.8005
 20
34.5135
 10
-0.8005
 20
34.5135
 42
-1.0
 10
-0.8005
 20
36.6065
 10
0.8005
 20
36.6065
 42
-0.195374
 10
1.530337
 20
36.31
 42
-0.195374
  0
CIRCLE
  5
DC5C
100
AcDbEntity
  8
DRILL
100
AcDbCircle
 10
0.0
 20
35.56
 30
0.0
 40
0.15
  0
LWPOLYLINE
  5
DC5E
100
AcDbEntity
  8
BOTT-PCB
  6
CONTINUOUS
100
AcDbPolyline
 90
        6
 70
     0
 43
0.0
 10
-1.530337
 20
31.23
 42
-0.195374
 10
-0.8005
 20
31.5265
 10
0.8005
 20
31.5265
 42
-1.0
 10
0.8005
 20
29.4335
 10
-0.8005
 20
29.4335
 42
-0.195374
 10
-1.530337
 20
29.73
 42
-0.195374
  0
CIRCLE
  5
DC5F
100
AcDbEntity
  8
DRILL
100
AcDbCircle
 10
0.0
 20
30.48
 30
0.0
 40
0.15
  0
LWPOLYLINE
  5
DC61
100
AcDbEntity
  8
BOTT-PCB
  6
CONTINUOUS
100
AcDbPolyline
 90
        4
 70
     1
 43
0.0
 10
-0.8005
 20
26.8935
 42
-1.0
 10
-0.8005
 20
28.9865
 10
0.8005
 20
28.9865
 42
-1.0
 10
0.8005
 20
26.8935
  0
CIRCLE
  5
DC62
100
AcDbEntity
  8
DRILL
100
AcDbCircle
 10
0.0
 20
27.94
 30
0.0
 40
0.15
  0
LWPOLYLINE
  5
DC64
100
AcDbEntity
  8
BOTT-PCB
  6
CONTINUOUS
100
AcDbPolyline
 90
        4
 70
     1
 43
0.0
 10
-0.8005
 20
24.3535
 42
-1.0
 10
-0.8005
 20
26.4465
 10
0.8005
 20
26.4465
 42
-1.0
 10
0.8005
 20
24.3535
  0
CIRCLE
  5
DC65
100
AcDbEntity
  8
DRILL
100
AcDbCircle
 10
0.0
 20
25.4
 30
0.0
 40
0.15
  0
LWPOLYLINE
  5
DC67
100
AcDbEntity
  8
BOTT-PCB
  6
CONTINUOUS
100
AcDbPolyline
 90
        4
 70
     1
 43
0.0
 10
-0.8005
 20
21.8135
 42
-1.0
 10
-0.8005
 20
23.9065
 10
0.8005
 20
23.9065
 42
-1.0
 10
0.8005
 20
21.8135
  0
CIRCLE
  5
DC68
100
AcDbEntity
  8
DRILL
100
AcDbCircle
 10
0.0
 20
22.86
 30
0.0
 40
0.15
  0
ARC
  5
DC6F
100
AcDbEntity
  8
BOTT-PCB
100
AcDbCircle
 10
5.08
 20
67.31
 30
0.0
 40
1.25
100
AcDbArc
 50
216.869898
 51
143.130102
  0
CIRCLE
  5
DC71
100
AcDbEntity
  8
DRILL
100
AcDbCircle
 10
5.08
 20
67.31
 30
0.0
 40
0.15
  0
ARC
  5
DC74
100
AcDbEntity
  8
BOTT-PCB
100
AcDbCircle
 10
5.08
 20
64.77
 30
0.0
 40
1.25
100
AcDbArc
 50
216.869898
 51
143.130102
  0
CIRCLE
  5
DC76
100
AcDbEntity
  8
DRILL
100
AcDbCircle
 10
5.08
 20
64.77
 30
0.0
 40
0.15
  0
ARC
  5
DC79
100
AcDbEntity
  8
BOTT-PCB
100
AcDbCircle
 10
5.08
 20
62.23
 30
0.0
 40
1.25
100
AcDbArc
 50
216.869898
 51
143.130102
  0
CIRCLE
  5
DC7B
100
AcDbEntity
  8
DRILL
100
AcDbCircle
 10
5.08
 20
62.23
 30
0.0
 40
0.15
  0
ARC
  5
DC7E
100
AcDbEntity
  8
BOTT-PCB
100
AcDbCircle
 10
5.08
 20
59.69
 30
0.0
 40
1.25
100
AcDbArc
 50
216.869898
 51
143.130102
  0
CIRCLE
  5
DC80
100
AcDbEntity
  8
DRILL
100
AcDbCircle
 10
5.08
 20
59.69
 30
0.0
 40
0.15
  0
ARC
  5
DC83
100
AcDbEntity
  8
BOTT-PCB
100
AcDbCircle
 10
5.08
 20
57.15
 30
0.0
 40
1.25
100
AcDbArc
 50
216.869898
 51
143.130102
  0
CIRCLE
  5
DC85
100
AcDbEntity
  8
DRILL
100
AcDbCircle
 10
5.08
 20
57.15
 30
0.0
 40
0.15
  0
CIRCLE
  5
DC88
100
AcDbEntity
  8
BOTT-PCB
100
AcDbCircle
 10
15.24
 20
57.15
 30
0.0
 40
1.25
  0
CIRCLE
  5
DC8A
100
AcDbEntity
  8
DRILL
100
AcDbCircle
 10
15.24
 20
57.15
 30
0.0
 40
0.15
  0
CIRCLE
  5
DC8D
100
AcDbEntity
  8
BOTT-PCB
100
AcDbCircle
 10
15.24
 20
59.69
 30
0.0
 40
1.25
  0
CIRCLE
  5
DC8F
100
AcDbEntity
  8
DRILL
100
AcDbCircle
 10
15.24
 20
59.69
 30
0.0
 40
0.15
  0
ARC
  5
DC92
100
AcDbEntity
  8
BOTT-PCB
100
AcDbCircle
 10
15.24
 20
62.23
 30
0.0
 40
1.25
100
AcDbArc
 50
243.434949
 51
169.695154
  0
CIRCLE
  5
DC94
100
AcDbEntity
  8
DRILL
100
AcDbCircle
 10
15.24
 20
62.23
 30
0.0
 40
0.15
  0
ARC
  5
DC97
100
AcDbEntity
  8
BOTT-PCB
100
AcDbCircle
 10
15.24
 20
64.77
 30
0.0
 40
1.25
100
AcDbArc
 50
216.869898
 51
143.130102
  0
CIRCLE
  5
DC99
100
AcDbEntity
  8
DRILL
100
AcDbCircle
 10
15.24
 20
64.77
 30
0.0
 40
0.15
  0
CIRCLE
  5
DC9C
100
AcDbEntity
  8
BOTT-PCB
100
AcDbCircle
 10
15.24
 20
67.31
 30
0.0
 40
1.25
  0
CIRCLE
  5
DC9E
100
AcDbEntity
  8
DRILL
100
AcDbCircle
 10
15.24
 20
67.31
 30
0.0
 40
0.15
  0
ARC
  5
DCA1
100
AcDbEntity
  8
BOTT-PCB
100
AcDbCircle
 10
6.35
 20
45.72
 30
0.0
 40
1.25
100
AcDbArc
 50
100.304846
 51
26.565051
  0
CIRCLE
  5
DCA3
100
AcDbEntity
  8
DRILL
100
AcDbCircle
 10
6.35
 20
45.72
 30
0.0
 40
0.15
  0
ARC
  5
DCA6
100
AcDbEntity
  8
BOTT-PCB
100
AcDbCircle
 10
11.43
 20
45.72
 30
0.0
 40
1.25
100
AcDbArc
 50
306.869898
 51
233.130102
  0
CIRCLE
  5
DCA8
100
AcDbEntity
  8
DRILL
100
AcDbCircle
 10
11.43
 20
45.72
 30
0.0
 40
0.15
  0
ARC
  5
DCAB
100
AcDbEntity
  8
BOTT-PCB
100
AcDbCircle
 10
7.62
 20
35.56
 30
0.0
 40
1.25
100
AcDbArc
 50
216.869898
 51
233.130102
  0
CIRCLE
  5
DCAD
100
AcDbEntity
  8
DRILL
100
AcDbCircle
 10
7.62
 20
35.56
 30
0.0
 40
0.15
  0
ARC
  5
DCB0
100
AcDbEntity
  8
BOTT-PCB
100
AcDbCircle
 10
11.43
 20
35.56
 30
0.0
 40
1.25
100
AcDbArc
 50
306.869898
 51
53.130102
  0
CIRCLE
  5
DCB2
100
AcDbEntity
  8
DRILL
100
AcDbCircle
 10
11.43
 20
35.56
 30
0.0
 40
0.15
  0
ARC
  5
DCB5
100
AcDbEntity
  8
BOTT-PCB
100
AcDbCircle
 10
15.24
 20
35.56
 30
0.0
 40
1.25
100
AcDbArc
 50
126.869898
 51
323.130102
  0
CIRCLE
  5
DCB7
100
AcDbEntity
  8
DRILL
100
AcDbCircle
 10
15.24
 20
35.56
 30
0.0
 40
0.15
  0
ARC
  5
DCBA
100
AcDbEntity
  8
BOTT-PCB
100
AcDbCircle
 10
7.62
 20
25.4
 30
0.0
 40
1.25
100
AcDbArc
 50
36.869898
 51
323.130102
  0
CIRCLE
  5
DCBC
100
AcDbEntity
  8
DRILL
100
AcDbCircle
 10
7.62
 20
25.4
 30
0.0
 40
0.15
  0
ARC
  5
DCBF
100
AcDbEntity
  8
BOTT-PCB
100
AcDbCircle
 10
11.43
 20
25.4
 30
0.0
 40
1.25
100
AcDbArc
 50
36.869898
 51
143.130102
  0
CIRCLE
  5
DCC1
100
AcDbEntity
  8
DRILL
100
AcDbCircle
 10
11.43
 20
25.4
 30
0.0
 40
0.15
  0
ARC
  5
DCC4
100
AcDbEntity
  8
BOTT-PCB
100
AcDbCircle
 10
15.24
 20
25.4
 30
0.0
 40
1.25
100
AcDbArc
 50
216.869898
 51
143.130102
  0
CIRCLE
  5
DCC6
100
AcDbEntity
  8
DRILL
100
AcDbCircle
 10
15.24
 20
25.4
 30
0.0
 40
0.15
  0
ARC
  5
DCC9
100
AcDbEntity
  8
BOTT-PCB
100
AcDbCircle
 10
34.29
 20
10.16
 30
0.0
 40
1.25
100
AcDbArc
 50
1.33222
 51
188.130102
  0
CIRCLE
  5
DCCB
100
AcDbEntity
  8
DRILL
100
AcDbCircle
 10
34.29
 20
10.16
 30
0.0
 40
0.15
  0
ARC
  5
DCCE
100
AcDbEntity
  8
BOTT-PCB
100
AcDbCircle
 10
29.21
 20
10.16
 30
0.0
 40
1.25
100
AcDbArc
 50
171.869898
 51
98.130102
  0
CIRCLE
  5
DCD0
100
AcDbEntity
  8
DRILL
100
AcDbCircle
 10
29.21
 20
10.16
 30
0.0
 40
0.15
  0
ARC
  5
DCD3
100
AcDbEntity
  8
BOTT-PCB
100
AcDbCircle
 10
46.99
 20
8.89
 30
0.0
 40
1.25
100
AcDbArc
 50
36.869898
 51
323.130102
  0
CIRCLE
  5
DCD5
100
AcDbEntity
  8
DRILL
100
AcDbCircle
 10
46.99
 20
8.89
 30
0.0
 40
0.15
  0
ARC
  5
DCD8
100
AcDbEntity
  8
BOTT-PCB
100
AcDbCircle
 10
46.99
 20
3.81
 30
0.0
 40
1.25
100
AcDbArc
 50
36.869898
 51
143.130102
  0
CIRCLE
  5
DCDA
100
AcDbEntity
  8
DRILL
100
AcDbCircle
 10
46.99
 20
3.81
 30
0.0
 40
0.15
  0
ARC
  5
DCDD
100
AcDbEntity
  8
BOTT-PCB
100
AcDbCircle
 10
15.24
 20
5.08
 30
0.0
 40
1.25
100
AcDbArc
 50
55.304846
 51
341.565051
  0
CIRCLE
  5
DCDF
100
AcDbEntity
  8
DRILL
100
AcDbCircle
 10
15.24
 20
5.08
 30
0.0
 40
0.15
  0
ARC
  5
DCE2
100
AcDbEntity
  8
BOTT-PCB
100
AcDbCircle
 10
15.24
 20
10.16
 30
0.0
 40
1.25
100
AcDbArc
 50
216.869898
 51
143.130102
  0
CIRCLE
  5
DCE4
100
AcDbEntity
  8
DRILL
100
AcDbCircle
 10
15.24
 20
10.16
 30
0.0
 40
0.15
  0
ARC
  5
DCE7
100
AcDbEntity
  8
BOTT-PCB
100
AcDbCircle
 10
15.24
 20
15.24
 30
0.0
 40
1.25
100
AcDbArc
 50
36.869898
 51
323.130102
  0
CIRCLE
  5
DCE9
100
AcDbEntity
  8
DRILL
100
AcDbCircle
 10
15.24
 20
15.24
 30
0.0
 40
0.15
  0
ARC
  5
DCEC
100
AcDbEntity
  8
BOTT-PCB
100
AcDbCircle
 10
15.24
 20
17.78
 30
0.0
 40
1.25
100
AcDbArc
 50
81.869898
 51
8.130102
  0
CIRCLE
  5
DCEE
100
AcDbEntity
  8
DRILL
100
AcDbCircle
 10
15.24
 20
17.78
 30
0.0
 40
0.15
  0
ARC
  5
DCFB
100
AcDbEntity
  8
BOTT-PCB
100
AcDbCircle
 10
55.88
 20
8.89
 30
0.0
 40
1.25
100
AcDbArc
 50
216.869898
 51
143.130102
  0
CIRCLE
  5
DCFD
100
AcDbEntity
  8
DRILL
100
AcDbCircle
 10
55.88
 20
8.89
 30
0.0
 40
0.15
  0
ARC
  5
DD00
100
AcDbEntity
  8
BOTT-PCB
100
AcDbCircle
 10
55.88
 20
3.81
 30
0.0
 40
1.25
100
AcDbArc
 50
216.869898
 51
323.130102
  0
CIRCLE
  5
DD02
100
AcDbEntity
  8
DRILL
100
AcDbCircle
 10
55.88
 20
3.81
 30
0.0
 40
0.15
  0
ARC
  5
DD05
100
AcDbEntity
  8
BOTT-PCB
100
AcDbCircle
 10
68.58
 20
5.08
 30
0.0
 40
1.25
100
AcDbArc
 50
126.869898
 51
169.695154
  0
CIRCLE
  5
DD07
100
AcDbEntity
  8
DRILL
100
AcDbCircle
 10
68.58
 20
5.08
 30
0.0
 40
0.15
  0
CIRCLE
  5
DD0A
100
AcDbEntity
  8
BOTT-PCB
100
AcDbCircle
 10
72.39
 20
5.08
 30
0.0
 40
1.25
  0
CIRCLE
  5
DD0C
100
AcDbEntity
  8
DRILL
100
AcDbCircle
 10
72.39
 20
5.08
 30
0.0
 40
0.15
  0
ARC
  5
DD0F
100
AcDbEntity
  8
BOTT-PCB
100
AcDbCircle
 10
58.42
 20
63.5
 30
0.0
 40
1.25
100
AcDbArc
 50
160.559965
 51
86.82017
  0
CIRCLE
  5
DD11
100
AcDbEntity
  8
DRILL
100
AcDbCircle
 10
58.42
 20
63.5
 30
0.0
 40
0.15
  0
ARC
  5
DD14
100
AcDbEntity
  8
BOTT-PCB
100
AcDbCircle
 10
55.88
 20
67.31
 30
0.0
 40
1.25
100
AcDbArc
 50
340.559965
 51
266.82017
  0
CIRCLE
  5
DD16
100
AcDbEntity
  8
DRILL
100
AcDbCircle
 10
55.88
 20
67.31
 30
0.0
 40
0.15
  0
ARC
  5
DD19
100
AcDbEntity
  8
BOTT-PCB
100
AcDbCircle
 10
38.1
 20
69.85
 30
0.0
 40
1.25
100
AcDbArc
 50
163.739795
 51
90.0
  0
CIRCLE
  5
DD1B
100
AcDbEntity
  8
DRILL
100
AcDbCircle
 10
38.1
 20
69.85
 30
0.0
 40
0.15
  0
ARC
  5
DD1E
100
AcDbEntity
  8
BOTT-PCB
100
AcDbCircle
 10
34.29
 20
74.93
 30
0.0
 40
1.25
100
AcDbArc
 50
343.739795
 51
270.0
  0
CIRCLE
  5
DD20
100
AcDbEntity
  8
DRILL
100
AcDbCircle
 10
34.29
 20
74.93
 30
0.0
 40
0.15
  0
ARC
  5
DD23
100
AcDbEntity
  8
BOTT-PCB
100
AcDbCircle
 10
15.24
 20
71.12
 30
0.0
 40
1.25
100
AcDbArc
 50
145.304846
 51
71.565051
  0
CIRCLE
  5
DD25
100
AcDbEntity
  8
DRILL
100
AcDbCircle
 10
15.24
 20
71.12
 30
0.0
 40
0.15
  0
ARC
  5
DD28
100
AcDbEntity
  8
BOTT-PCB
100
AcDbCircle
 10
13.97
 20
74.93
 30
0.0
 40
1.25
100
AcDbArc
 50
325.304846
 51
251.565051
  0
CIRCLE
  5
DD2A
100
AcDbEntity
  8
DRILL
100
AcDbCircle
 10
13.97
 20
74.93
 30
0.0
 40
0.15
  0
CIRCLE
  5
DD36
100
AcDbEntity
  8
BOTT-PCB
100
AcDbCircle
 10
78.739
 20
48.1575
 30
0.0
 40
1.75
  0
CIRCLE
  5
DD38
100
AcDbEntity
  8
DRILL
100
AcDbCircle
 10
78.739
 20
48.1575
 30
0.0
 40
0.15
  0
CIRCLE
  5
DD3A
100
AcDbEntity
  8
BOTT-PCB
100
AcDbCircle
 10
78.701
 20
43.1895
 30
0.0
 40
1.75
  0
CIRCLE
  5
DD3C
100
AcDbEntity
  8
DRILL
100
AcDbCircle
 10
78.701
 20
43.1895
 30
0.0
 40
0.15
  0
ARC
  5
DD3E
100
AcDbEntity
  8
BOTT-PCB
100
AcDbCircle
 10
78.701
 20
38.184
 30
0.0
 40
1.75
100
AcDbArc
 50
67.263824
 51
16.427465
  0
CIRCLE
  5
DD40
100
AcDbEntity
  8
DRILL
100
AcDbCircle
 10
78.701
 20
38.184
 30
0.0
 40
0.15
  0
ARC
  5
DD42
100
AcDbEntity
  8
BOTT-PCB
100
AcDbCircle
 10
78.701
 20
33.2035
 30
0.0
 40
1.75
100
AcDbArc
 50
164.140851
 51
113.272997
  0
CIRCLE
  5
DD44
100
AcDbEntity
  8
DRILL
100
AcDbCircle
 10
78.701
 20
33.2035
 30
0.0
 40
0.15
  0
ARC
  5
DD46
100
AcDbEntity
  8
BOTT-PCB
100
AcDbCircle
 10
78.739
 20
25.3275
 30
0.0
 40
1.75
100
AcDbArc
 50
28.034297
 51
337.223164
  0
CIRCLE
  5
DD48
100
AcDbEntity
  8
DRILL
100
AcDbCircle
 10
78.739
 20
25.3275
 30
0.0
 40
0.15
  0
ARC
  5
DD4A
100
AcDbEntity
  8
BOTT-PCB
100
AcDbCircle
 10
78.739
 20
20.3345
 30
0.0
 40
1.75
100
AcDbArc
 50
295.413176
 51
244.659298
  0
CIRCLE
  5
DD4C
100
AcDbEntity
  8
DRILL
100
AcDbCircle
 10
78.739
 20
20.3345
 30
0.0
 40
0.15
  0
ARC
  5
DD4E
100
AcDbEntity
  8
BOTT-PCB
100
AcDbCircle
 10
3.81
 20
12.7
 30
0.0
 40
1.75
100
AcDbArc
 50
351.686866
 51
300.932999
  0
CIRCLE
  5
DD50
100
AcDbEntity
  8
DRILL
100
AcDbCircle
 10
3.81
 20
12.7
 30
0.0
 40
0.15
  0
ARC
  5
DD52
100
AcDbEntity
  8
BOTT-PCB
100
AcDbCircle
 10
3.81
 20
17.78
 30
0.0
 40
1.75
100
AcDbArc
 50
205.376934
 51
154.623066
  0
CIRCLE
  5
DD54
100
AcDbEntity
  8
DRILL
100
AcDbCircle
 10
3.81
 20
17.78
 30
0.0
 40
0.15
  0
LWPOLYLINE
  5
DD56
100
AcDbEntity
  8
BOTT-PCB
  6
CONTINUOUS
100
AcDbPolyline
 90
        6
 70
     0
 43
0.0
 10
31.23
 20
5.340337
 42
-0.195374
 10
31.5265
 20
4.6105
 10
31.5265
 20
3.0095
 42
-1.0
 10
29.4335
 20
3.0095
 10
29.4335
 20
4.6105
 42
-0.195374
 10
29.73
 20
5.340337
 42
-0.195374
  0
CIRCLE
  5
DD57
100
AcDbEntity
  8
DRILL
100
AcDbCircle
 10
30.48
 20
3.81
 30
0.0
 40
0.15
  0
CIRCLE
  5
DD58
100
AcDbEntity
  8
DRILL
100
AcDbCircle
 10
33.02
 20
3.81
 30
0.0
 40
0.15
  0
LWPOLYLINE
  5
DD59
100
AcDbEntity
  8
BOTT-PCB
  6
CONTINUOUS
100
AcDbPolyline
 90
        4
 70
     1
 43
0.0
 10
31.9735
 20
4.6105
 42
-1.0
 10
34.0665
 20
4.6105
 10
34.0665
 20
3.0095
 42
-1.0
 10
31.9735
 20
3.0095
  0
CIRCLE
  5
DD5A
100
AcDbEntity
  8
DRILL
100
AcDbCircle
 10
27.94
 20
3.81
 30
0.0
 40
0.15
  0
LWPOLYLINE
  5
DD5B
100
AcDbEntity
  8
BOTT-PCB
  6
CONTINUOUS
100
AcDbPolyline
 90
        4
 70
     1
 43
0.0
 10
26.8935
 20
4.6105
 42
-1.0
 10
28.9865
 20
4.6105
 10
28.9865
 20
3.0095
 42
-1.0
 10
26.8935
 20
3.0095
  0
LINE
  5
DD7C
100
AcDbEntity
  8
BOTT-PCB
100
AcDbLine
 10
35.539662
 20
10.189062
 30
0.0
 11
43.420349
 21
4.56
 31
0.0
  0
LINE
  5
DD7D
100
AcDbEntity
  8
BOTT-PCB
100
AcDbLine
 10
34.667805
 20
8.968462
 30
0.0
 11
42.939651
 21
3.06
 31
0.0
  0
LINE
  5
DD7E
100
AcDbEntity
  8
BOTT-PCB
100
AcDbLine
 10
43.420349
 20
4.56
 30
0.0
 11
45.99
 21
4.56
 31
0.0
  0
LINE
  5
DD7F
100
AcDbEntity
  8
BOTT-PCB
100
AcDbLine
 10
42.939651
 20
3.06
 30
0.0
 11
45.99
 21
3.06
 31
0.0
  0
LINE
  5
DD80
100
AcDbEntity
  8
BOTT-PCB
100
AcDbLine
 10
65.862949
 20
4.56
 30
0.0
 11
67.350163
 21
5.303607
 31
0.0
  0
LINE
  5
DD81
100
AcDbEntity
  8
BOTT-PCB
100
AcDbLine
 10
66.217051
 20
3.06
 30
0.0
 11
68.020983
 21
3.961966
 31
0.0
  0
LINE
  5
DD82
100
AcDbEntity
  8
BOTT-PCB
100
AcDbLine
 10
67.83
 20
6.08
 30
0.0
 11
67.83
 21
11.6535
 31
0.0
  0
LINE
  5
DD83
100
AcDbEntity
  8
BOTT-PCB
100
AcDbLine
 10
69.33
 20
6.08
 30
0.0
 11
69.33
 21
11.6535
 31
0.0
  0
LINE
  5
DD84
100
AcDbEntity
  8
BOTT-PCB
100
AcDbLine
 10
47.99
 20
9.64
 30
0.0
 11
54.88
 21
9.64
 31
0.0
  0
LINE
  5
DD85
100
AcDbEntity
  8
BOTT-PCB
100
AcDbLine
 10
47.99
 20
8.14
 30
0.0
 11
54.88
 21
8.14
 31
0.0
  0
LINE
  5
DD86
100
AcDbEntity
  8
BOTT-PCB
100
AcDbLine
 10
15.951512
 20
6.10774
 30
0.0
 11
22.738292
 21
8.37
 31
0.0
  0
LINE
  5
DD87
100
AcDbEntity
  8
BOTT-PCB
100
AcDbLine
 10
16.425854
 20
4.684715
 30
0.0
 11
22.981708
 21
6.87
 31
0.0
  0
LINE
  5
DD88
100
AcDbEntity
  8
BOTT-PCB
100
AcDbLine
 10
22.738292
 20
8.37
 30
0.0
 11
31.43934
 21
8.37
 31
0.0
  0
LINE
  5
DD89
100
AcDbEntity
  8
BOTT-PCB
100
AcDbLine
 10
22.981708
 20
6.87
 30
0.0
 11
29.73
 21
6.87
 31
0.0
  0
LINE
  5
DD8A
100
AcDbEntity
  8
BOTT-PCB
100
AcDbLine
 10
31.43934
 20
8.37
 30
0.0
 11
33.052563
 21
9.983223
 31
0.0
  0
LINE
  5
DD8B
100
AcDbEntity
  8
BOTT-PCB
100
AcDbLine
 10
32.06066
 20
6.87
 30
0.0
 11
34.113223
 21
8.922563
 31
0.0
  0
LINE
  5
DD8C
100
AcDbEntity
  8
BOTT-PCB
100
AcDbLine
 10
29.73
 20
5.340337
 30
0.0
 11
29.73
 21
6.87
 31
0.0
  0
LINE
  5
DD8D
100
AcDbEntity
  8
BOTT-PCB
100
AcDbLine
 10
31.23
 20
5.340337
 30
0.0
 11
31.23
 21
6.87
 31
0.0
  0
LINE
  5
DD8E
100
AcDbEntity
  8
BOTT-PCB
100
AcDbLine
 10
14.24
 20
9.41
 30
0.0
 11
7.392918
 21
9.41
 31
0.0
  0
LINE
  5
DD8F
100
AcDbEntity
  8
BOTT-PCB
100
AcDbLine
 10
14.24
 20
10.91
 30
0.0
 11
7.847082
 21
10.91
 31
0.0
  0
LINE
  5
DD90
100
AcDbEntity
  8
BOTT-PCB
100
AcDbLine
 10
7.392918
 20
9.41
 30
0.0
 11
4.709562
 21
11.198904
 31
0.0
  0
LINE
  5
DD91
100
AcDbEntity
  8
BOTT-PCB
100
AcDbLine
 10
7.847082
 20
10.91
 30
0.0
 11
5.541612
 21
12.44698
 31
0.0
  0
LINE
  5
DD92
100
AcDbEntity
  8
BOTT-PCB
100
AcDbLine
 10
15.416777
 20
19.017437
 30
0.0
 11
17.46934
 21
21.07
 31
0.0
  0
LINE
  5
DD93
100
AcDbEntity
  8
BOTT-PCB
100
AcDbLine
 10
16.477437
 20
17.956777
 30
0.0
 11
18.09066
 21
19.57
 31
0.0
  0
LINE
  5
DD94
100
AcDbEntity
  8
BOTT-PCB
100
AcDbLine
 10
17.46934
 20
21.07
 30
0.0
 11
23.869663
 21
21.07
 31
0.0
  0
LINE
  5
DD95
100
AcDbEntity
  8
BOTT-PCB
100
AcDbLine
 10
18.09066
 20
19.57
 30
0.0
 11
23.869663
 21
19.57
 31
0.0
  0
LINE
  5
DD96
100
AcDbEntity
  8
BOTT-PCB
100
AcDbLine
 10
16.24
 20
15.99
 30
0.0
 11
22.54934
 21
15.99
 31
0.0
  0
LINE
  5
DD97
100
AcDbEntity
  8
BOTT-PCB
100
AcDbLine
 10
16.24
 20
14.49
 30
0.0
 11
23.17066
 21
14.49
 31
0.0
  0
LINE
  5
DD98
100
AcDbEntity
  8
BOTT-PCB
100
AcDbLine
 10
22.54934
 20
15.99
 30
0.0
 11
23.740956
 21
17.181616
 31
0.0
  0
LINE
  5
DD99
100
AcDbEntity
  8
BOTT-PCB
100
AcDbLine
 10
23.17066
 20
14.49
 30
0.0
 11
25.41416
 21
16.7335
 31
0.0
  0
LINE
  5
DD9A
100
AcDbEntity
  8
BOTT-PCB
100
AcDbLine
 10
8.62
 20
26.15
 30
0.0
 11
10.43
 21
26.15
 31
0.0
  0
LINE
  5
DD9B
100
AcDbEntity
  8
BOTT-PCB
100
AcDbLine
 10
8.62
 20
24.65
 30
0.0
 11
10.43
 21
24.65
 31
0.0
  0
LINE
  5
DD9C
100
AcDbEntity
  8
BOTT-PCB
100
AcDbLine
 10
12.18
 20
24.4
 30
0.0
 11
12.18
 21
14.28066
 31
0.0
  0
LINE
  5
DD9D
100
AcDbEntity
  8
BOTT-PCB
100
AcDbLine
 10
10.68
 20
24.4
 30
0.0
 11
10.68
 21
13.65934
 31
0.0
  0
LINE
  5
DD9E
100
AcDbEntity
  8
BOTT-PCB
100
AcDbLine
 10
12.18
 20
14.28066
 30
0.0
 11
13.01066
 21
13.45
 31
0.0
  0
LINE
  5
DD9F
100
AcDbEntity
  8
BOTT-PCB
100
AcDbLine
 10
10.68
 20
13.65934
 30
0.0
 11
12.38934
 21
11.95
 31
0.0
  0
LINE
  5
DDA0
100
AcDbEntity
  8
BOTT-PCB
100
AcDbLine
 10
13.01066
 20
13.45
 30
0.0
 11
26.98066
 21
13.45
 31
0.0
  0
LINE
  5
DDA1
100
AcDbEntity
  8
BOTT-PCB
100
AcDbLine
 10
12.38934
 20
11.95
 30
0.0
 11
26.35934
 21
11.95
 31
0.0
  0
LINE
  5
DDA2
100
AcDbEntity
  8
BOTT-PCB
100
AcDbLine
 10
26.98066
 20
13.45
 30
0.0
 11
29.033223
 21
11.397437
 31
0.0
  0
LINE
  5
DDA3
100
AcDbEntity
  8
BOTT-PCB
100
AcDbLine
 10
26.35934
 20
11.95
 30
0.0
 11
27.972563
 21
10.336777
 31
0.0
  0
LINE
  5
DDA4
100
AcDbEntity
  8
BOTT-PCB
100
AcDbLine
 10
70.110337
 20
15.99
 30
0.0
 11
75.88934
 21
15.99
 31
0.0
  0
LINE
  5
DDA5
100
AcDbEntity
  8
BOTT-PCB
100
AcDbLine
 10
70.110337
 20
14.49
 30
0.0
 11
76.51066
 21
14.49
 31
0.0
  0
LINE
  5
DDA6
100
AcDbEntity
  8
BOTT-PCB
100
AcDbLine
 10
75.88934
 20
15.99
 30
0.0
 11
77.99
 21
18.09066
 31
0.0
  0
LINE
  5
DDA7
100
AcDbEntity
  8
BOTT-PCB
100
AcDbLine
 10
76.51066
 20
14.49
 30
0.0
 11
79.49
 21
17.46934
 31
0.0
  0
LINE
  5
DDA8
100
AcDbEntity
  8
BOTT-PCB
100
AcDbLine
 10
77.99
 20
18.09066
 30
0.0
 11
77.99
 21
18.752887
 31
0.0
  0
LINE
  5
DDA9
100
AcDbEntity
  8
BOTT-PCB
100
AcDbLine
 10
79.49
 20
17.46934
 30
0.0
 11
79.49
 21
18.753836
 31
0.0
  0
LINE
  5
DDAA
100
AcDbEntity
  8
BOTT-PCB
100
AcDbLine
 10
62.75
 20
28.9865
 30
0.0
 11
62.75
 21
34.60066
 31
0.0
  0
LINE
  5
DDAB
100
AcDbEntity
  8
BOTT-PCB
100
AcDbLine
 10
64.25
 20
28.9865
 30
0.0
 11
64.25
 21
33.97934
 31
0.0
  0
LINE
  5
DDAC
100
AcDbEntity
  8
BOTT-PCB
100
AcDbLine
 10
62.75
 20
34.60066
 30
0.0
 11
64.45934
 21
36.31
 31
0.0
  0
LINE
  5
DDAD
100
AcDbEntity
  8
BOTT-PCB
100
AcDbLine
 10
64.25
 20
33.97934
 30
0.0
 11
65.08066
 21
34.81
 31
0.0
  0
LINE
  5
DDAE
100
AcDbEntity
  8
BOTT-PCB
100
AcDbLine
 10
64.45934
 20
36.31
 30
0.0
 11
67.554028
 21
36.31
 31
0.0
  0
LINE
  5
DDAF
100
AcDbEntity
  8
BOTT-PCB
100
AcDbLine
 10
65.08066
 20
34.81
 30
0.0
 11
67.545028
 21
34.81
 31
0.0
  0
LINE
  5
DDB0
100
AcDbEntity
  8
BOTT-PCB
100
AcDbLine
 10
65.030337
 20
23.61
 30
0.0
 11
65.29
 21
23.61
 31
0.0
  0
LINE
  5
DDB1
100
AcDbEntity
  8
BOTT-PCB
100
AcDbLine
 10
65.030337
 20
22.11
 30
0.0
 11
66.79
 21
22.11
 31
0.0
  0
LINE
  5
DDB2
100
AcDbEntity
  8
BOTT-PCB
100
AcDbLine
 10
65.29
 20
23.61
 30
0.0
 11
65.29
 21
31.23
 31
0.0
  0
LINE
  5
DDB3
100
AcDbEntity
  8
BOTT-PCB
100
AcDbLine
 10
66.79
 20
22.11
 30
0.0
 11
66.79
 21
29.73
 31
0.0
  0
LINE
  5
DDB4
100
AcDbEntity
  8
BOTT-PCB
100
AcDbLine
 10
65.29
 20
31.23
 30
0.0
 11
67.566188
 21
31.23
 31
0.0
  0
LINE
  5
DDB5
100
AcDbEntity
  8
BOTT-PCB
100
AcDbLine
 10
66.79
 20
29.73
 30
0.0
 11
67.61122
 21
29.73
 31
0.0
  0
LINE
  5
DDB6
100
AcDbEntity
  8
BOTT-PCB
100
AcDbLine
 10
61.969663
 20
19.57
 30
0.0
 11
60.64934
 21
19.57
 31
0.0
  0
LINE
  5
DDB7
100
AcDbEntity
  8
BOTT-PCB
100
AcDbLine
 10
61.969663
 20
21.07
 30
0.0
 11
61.27066
 21
21.07
 31
0.0
  0
LINE
  5
DDB8
100
AcDbEntity
  8
BOTT-PCB
100
AcDbLine
 10
60.64934
 20
19.57
 30
0.0
 11
57.67
 21
22.54934
 31
0.0
  0
LINE
  5
DDB9
100
AcDbEntity
  8
BOTT-PCB
100
AcDbLine
 10
61.27066
 20
21.07
 30
0.0
 11
59.17
 21
23.17066
 31
0.0
  0
LINE
  5
DDBA
100
AcDbEntity
  8
BOTT-PCB
100
AcDbLine
 10
57.67
 20
22.54934
 30
0.0
 11
57.67
 21
34.60066
 31
0.0
  0
LINE
  5
DDBB
100
AcDbEntity
  8
BOTT-PCB
100
AcDbLine
 10
59.17
 20
23.17066
 30
0.0
 11
59.17
 21
33.97934
 31
0.0
  0
LINE
  5
DDBC
100
AcDbEntity
  8
BOTT-PCB
100
AcDbLine
 10
57.67
 20
34.60066
 30
0.0
 11
61.91934
 21
38.85
 31
0.0
  0
LINE
  5
DDBD
100
AcDbEntity
  8
BOTT-PCB
100
AcDbLine
 10
59.17
 20
33.97934
 30
0.0
 11
62.54066
 21
37.35
 31
0.0
  0
LINE
  5
DDBE
100
AcDbEntity
  8
BOTT-PCB
100
AcDbLine
 10
61.91934
 20
38.85
 30
0.0
 11
70.16066
 21
38.85
 31
0.0
  0
LINE
  5
DDBF
100
AcDbEntity
  8
BOTT-PCB
100
AcDbLine
 10
62.54066
 20
37.35
 30
0.0
 11
69.53934
 21
37.35
 31
0.0
  0
LINE
  5
DDC0
100
AcDbEntity
  8
BOTT-PCB
100
AcDbLine
 10
70.16066
 20
38.85
 30
0.0
 11
71.87
 21
37.14066
 31
0.0
  0
LINE
  5
DDC1
100
AcDbEntity
  8
BOTT-PCB
100
AcDbLine
 10
69.53934
 20
37.35
 30
0.0
 11
70.37
 21
36.51934
 31
0.0
  0
LINE
  5
DDC2
100
AcDbEntity
  8
BOTT-PCB
100
AcDbLine
 10
71.87
 20
37.14066
 30
0.0
 11
71.87
 21
28.746475
 31
0.0
  0
LINE
  5
DDC3
100
AcDbEntity
  8
BOTT-PCB
100
AcDbLine
 10
70.37
 20
36.51934
 30
0.0
 11
70.37
 21
29.673525
 31
0.0
  0
LINE
  5
DDC4
100
AcDbEntity
  8
BOTT-PCB
100
AcDbLine
 10
71.87
 20
28.746475
 30
0.0
 11
69.812482
 21
27.717715
 31
0.0
  0
LINE
  5
DDC5
100
AcDbEntity
  8
BOTT-PCB
100
AcDbLine
 10
70.37
 20
29.673525
 30
0.0
 11
69.171673
 21
29.074362
 31
0.0
  0
LINE
  5
DDD0
100
AcDbEntity
  8
BOTT-PCB
100
AcDbLine
 10
47.51
 20
16.770337
 30
0.0
 11
47.51
 21
34.731303
 31
0.0
  0
LINE
  5
DDD1
100
AcDbEntity
  8
BOTT-PCB
100
AcDbLine
 10
49.01
 20
16.770337
 30
0.0
 11
49.01
 21
33.848697
 31
0.0
  0
LINE
  5
DDD2
100
AcDbEntity
  8
BOTT-PCB
100
AcDbLine
 10
47.51
 20
34.731303
 30
0.0
 11
59.495655
 21
41.39
 31
0.0
  0
LINE
  5
DDD3
100
AcDbEntity
  8
BOTT-PCB
100
AcDbLine
 10
49.01
 20
33.848697
 30
0.0
 11
59.884345
 21
39.89
 31
0.0
  0
LINE
  5
DDD4
100
AcDbEntity
  8
BOTT-PCB
100
AcDbLine
 10
59.495655
 20
41.39
 30
0.0
 11
69.1
 21
41.39
 31
0.0
  0
LINE
  5
DDD5
100
AcDbEntity
  8
BOTT-PCB
100
AcDbLine
 10
59.884345
 20
39.89
 30
0.0
 11
70.6
 21
39.89
 31
0.0
  0
LINE
  5
DDD6
100
AcDbEntity
  8
BOTT-PCB
100
AcDbLine
 10
69.1
 20
41.39
 30
0.0
 11
69.1
 21
53.59
 31
0.0
  0
LINE
  5
DDD7
100
AcDbEntity
  8
BOTT-PCB
100
AcDbLine
 10
70.6
 20
39.89
 30
0.0
 11
70.6
 21
53.09
 31
0.0
  0
LINE
  5
DDD8
100
AcDbEntity
  8
BOTT-PCB
100
AcDbLine
 10
69.1
 20
53.59
 30
0.0
 11
72.18142
 21
57.698559
 31
0.0
  0
LINE
  5
DDD9
100
AcDbEntity
  8
BOTT-PCB
100
AcDbLine
 10
70.6
 20
53.09
 30
0.0
 11
73.812625
 21
57.3735
 31
0.0
  0
LINE
  5
DDDA
100
AcDbEntity
  8
BOTT-PCB
100
AcDbLine
 10
77.017611
 20
33.681729
 30
0.0
 11
75.45
 21
35.24934
 31
0.0
  0
LINE
  5
DDDB
100
AcDbEntity
  8
BOTT-PCB
100
AcDbLine
 10
78.009553
 20
34.811107
 30
0.0
 11
76.95
 21
35.87066
 31
0.0
  0
LINE
  5
DDDC
100
AcDbEntity
  8
BOTT-PCB
100
AcDbLine
 10
75.45
 20
35.24934
 30
0.0
 11
75.45
 21
53.517051
 31
0.0
  0
LINE
  5
DDDD
100
AcDbEntity
  8
BOTT-PCB
100
AcDbLine
 10
76.95
 20
35.87066
 30
0.0
 11
76.95
 21
53.162949
 31
0.0
  0
LINE
  5
DDDE
100
AcDbEntity
  8
BOTT-PCB
100
AcDbLine
 10
75.45
 20
53.517051
 30
0.0
 11
76.72
 21
56.057051
 31
0.0
  0
LINE
  5
DDDF
100
AcDbEntity
  8
BOTT-PCB
100
AcDbLine
 10
76.95
 20
53.162949
 30
0.0
 11
78.22
 21
55.702949
 31
0.0
  0
LINE
  5
DDE0
100
AcDbEntity
  8
BOTT-PCB
100
AcDbLine
 10
76.72
 20
56.057051
 30
0.0
 11
76.72
 21
61.689431
 31
0.0
  0
LINE
  5
DDE1
100
AcDbEntity
  8
BOTT-PCB
100
AcDbLine
 10
78.22
 20
55.702949
 30
0.0
 11
78.22
 21
62.770569
 31
0.0
  0
LINE
  5
DDE2
100
AcDbEntity
  8
BOTT-PCB
100
AcDbLine
 10
76.72
 20
61.689431
 30
0.0
 11
74.427792
 21
62.4535
 31
0.0
  0
LINE
  5
DDE3
100
AcDbEntity
  8
BOTT-PCB
100
AcDbLine
 10
78.22
 20
62.770569
 30
0.0
 11
75.575913
 21
63.651932
 31
0.0
  0
LINE
  5
DDEA
100
AcDbEntity
  8
BOTT-PCB
100
AcDbLine
 10
79.377355
 20
39.798015
 30
0.0
 11
80.53
 21
40.95066
 31
0.0
  0
LINE
  5
DDEB
100
AcDbEntity
  8
BOTT-PCB
100
AcDbLine
 10
80.379562
 20
38.678902
 30
0.0
 11
82.03
 21
40.32934
 31
0.0
  0
LINE
  5
DDEC
100
AcDbEntity
  8
BOTT-PCB
100
AcDbLine
 10
80.53
 20
40.95066
 30
0.0
 11
80.53
 21
69.386475
 31
0.0
  0
LINE
  5
DDED
100
AcDbEntity
  8
BOTT-PCB
100
AcDbLine
 10
82.03
 20
40.32934
 30
0.0
 11
82.03
 21
70.313525
 31
0.0
  0
LINE
  5
DDEE
100
AcDbEntity
  8
BOTT-PCB
100
AcDbLine
 10
80.53
 20
69.386475
 30
0.0
 11
78.562949
 21
70.37
 31
0.0
  0
LINE
  5
DDEF
100
AcDbEntity
  8
BOTT-PCB
100
AcDbLine
 10
82.03
 20
70.313525
 30
0.0
 11
78.917051
 21
71.87
 31
0.0
  0
LINE
  5
DDF0
100
AcDbEntity
  8
BOTT-PCB
100
AcDbLine
 10
78.562949
 20
70.37
 30
0.0
 11
75.270337
 21
70.37
 31
0.0
  0
LINE
  5
DDF1
100
AcDbEntity
  8
BOTT-PCB
100
AcDbLine
 10
78.917051
 20
71.87
 30
0.0
 11
75.270337
 21
71.87
 31
0.0
  0
LINE
  5
DDF4
100
AcDbEntity
  8
BOTT-PCB
100
AcDbLine
 10
75.270337
 20
76.95
 30
0.0
 11
78.917051
 21
76.95
 31
0.0
  0
LINE
  5
DDF5
100
AcDbEntity
  8
BOTT-PCB
100
AcDbLine
 10
75.270337
 20
75.45
 30
0.0
 11
78.562949
 21
75.45
 31
0.0
  0
LINE
  5
DDF6
100
AcDbEntity
  8
BOTT-PCB
100
AcDbLine
 10
78.917051
 20
76.95
 30
0.0
 11
84.57
 21
74.123525
 31
0.0
  0
LINE
  5
DDF7
100
AcDbEntity
  8
BOTT-PCB
100
AcDbLine
 10
78.562949
 20
75.45
 30
0.0
 11
83.07
 21
73.196475
 31
0.0
  0
LINE
  5
DDF8
100
AcDbEntity
  8
BOTT-PCB
100
AcDbLine
 10
84.57
 20
74.123525
 30
0.0
 11
84.57
 21
27.762949
 31
0.0
  0
LINE
  5
DDF9
100
AcDbEntity
  8
BOTT-PCB
100
AcDbLine
 10
83.07
 20
73.196475
 30
0.0
 11
83.07
 21
28.117051
 31
0.0
  0
LINE
  5
DDFA
100
AcDbEntity
  8
BOTT-PCB
100
AcDbLine
 10
84.57
 20
27.762949
 30
0.0
 11
83.013525
 21
24.65
 31
0.0
  0
LINE
  5
DDFB
100
AcDbEntity
  8
BOTT-PCB
100
AcDbLine
 10
83.07
 20
28.117051
 30
0.0
 11
82.086475
 21
26.15
 31
0.0
  0
LINE
  5
DDFC
100
AcDbEntity
  8
BOTT-PCB
100
AcDbLine
 10
83.013525
 20
24.65
 30
0.0
 11
80.352535
 21
24.65
 31
0.0
  0
LINE
  5
DDFD
100
AcDbEntity
  8
BOTT-PCB
100
AcDbLine
 10
82.086475
 20
26.15
 30
0.0
 11
80.283666
 21
26.15
 31
0.0
  0
LINE
  5
DDFE
100
AcDbEntity
  8
BOTT-PCB
100
AcDbLine
 10
66.02584
 20
77.2465
 30
0.0
 11
68.26934
 21
79.49
 31
0.0
  0
LINE
  5
DDFF
100
AcDbEntity
  8
BOTT-PCB
100
AcDbLine
 10
67.699044
 20
76.798384
 30
0.0
 11
68.89066
 21
77.99
 31
0.0
  0
LINE
  5
DE00
100
AcDbEntity
  8
BOTT-PCB
100
AcDbLine
 10
68.26934
 20
79.49
 30
0.0
 11
78.917051
 21
79.49
 31
0.0
  0
LINE
  5
DE01
100
AcDbEntity
  8
BOTT-PCB
100
AcDbLine
 10
68.89066
 20
77.99
 30
0.0
 11
78.562949
 21
77.99
 31
0.0
  0
LINE
  5
DE02
100
AcDbEntity
  8
BOTT-PCB
100
AcDbLine
 10
78.917051
 20
79.49
 30
0.0
 11
87.11
 21
75.393525
 31
0.0
  0
LINE
  5
DE03
100
AcDbEntity
  8
BOTT-PCB
100
AcDbLine
 10
78.562949
 20
77.99
 30
0.0
 11
85.61
 21
74.466475
 31
0.0
  0
LINE
  5
DE04
100
AcDbEntity
  8
BOTT-PCB
100
AcDbLine
 10
87.11
 20
75.393525
 30
0.0
 11
87.11
 21
25.08934
 31
0.0
  0
LINE
  5
DE05
100
AcDbEntity
  8
BOTT-PCB
100
AcDbLine
 10
85.61
 20
74.466475
 30
0.0
 11
85.61
 21
25.71066
 31
0.0
  0
LINE
  5
DE06
100
AcDbEntity
  8
BOTT-PCB
100
AcDbLine
 10
87.11
 20
25.08934
 30
0.0
 11
84.13066
 21
22.11
 31
0.0
  0
LINE
  5
DE07
100
AcDbEntity
  8
BOTT-PCB
100
AcDbLine
 10
85.61
 20
25.71066
 30
0.0
 11
83.50934
 21
23.61
 31
0.0
  0
LINE
  5
DE08
100
AcDbEntity
  8
BOTT-PCB
100
AcDbLine
 10
84.13066
 20
22.11
 30
0.0
 11
73.66
 21
22.11
 31
0.0
  0
LINE
  5
DE09
100
AcDbEntity
  8
BOTT-PCB
100
AcDbLine
 10
83.50934
 20
23.61
 30
0.0
 11
79.074699
 21
23.61
 31
0.0
  0
LINE
  5
DE0A
100
AcDbEntity
  8
BOTT-PCB
100
AcDbLine
 10
73.66
 20
22.11
 30
0.0
 11
73.66
 21
22.11
 31
0.0
  0
LINE
  5
DE0B
100
AcDbEntity
  8
BOTT-PCB
100
AcDbLine
 10
73.66
 20
22.11
 30
0.0
 11
70.16066
 21
22.11
 31
0.0
  0
LINE
  5
DE0C
100
AcDbEntity
  8
BOTT-PCB
100
AcDbLine
 10
73.66
 20
23.61
 30
0.0
 11
73.66
 21
23.61
 31
0.0
  0
LINE
  5
DE0D
100
AcDbEntity
  8
BOTT-PCB
100
AcDbLine
 10
73.66
 20
23.61
 30
0.0
 11
69.53934
 21
23.61
 31
0.0
  0
LINE
  5
DE0E
100
AcDbEntity
  8
BOTT-PCB
100
AcDbLine
 10
70.16066
 20
22.11
 30
0.0
 11
65.08066
 21
17.03
 31
0.0
  0
LINE
  5
DE0F
100
AcDbEntity
  8
BOTT-PCB
100
AcDbLine
 10
69.53934
 20
23.61
 30
0.0
 11
64.45934
 21
18.53
 31
0.0
  0
LINE
  5
DE10
100
AcDbEntity
  8
BOTT-PCB
100
AcDbLine
 10
65.08066
 20
17.03
 30
0.0
 11
61.354709
 21
17.03
 31
0.0
  0
LINE
  5
DE11
100
AcDbEntity
  8
BOTT-PCB
100
AcDbLine
 10
64.45934
 20
18.53
 30
0.0
 11
58.597051
 21
18.53
 31
0.0
  0
LINE
  5
DE12
100
AcDbEntity
  8
BOTT-PCB
100
AcDbLine
 10
58.242949
 20
17.03
 30
0.0
 11
55.702949
 21
18.3
 31
0.0
  0
LINE
  5
DE13
100
AcDbEntity
  8
BOTT-PCB
100
AcDbLine
 10
58.597051
 20
18.53
 30
0.0
 11
56.057051
 21
19.8
 31
0.0
  0
LINE
  5
DE14
100
AcDbEntity
  8
BOTT-PCB
100
AcDbLine
 10
55.702949
 20
18.3
 30
0.0
 11
52.610569
 21
18.3
 31
0.0
  0
LINE
  5
DE15
100
AcDbEntity
  8
BOTT-PCB
100
AcDbLine
 10
56.057051
 20
19.8
 30
0.0
 11
51.529431
 21
19.8
 31
0.0
  0
LINE
  5
DE16
100
AcDbEntity
  8
BOTT-PCB
100
AcDbLine
 10
52.610569
 20
18.3
 30
0.0
 11
51.8465
 21
16.007792
 31
0.0
  0
LINE
  5
DE17
100
AcDbEntity
  8
BOTT-PCB
100
AcDbLine
 10
51.529431
 20
19.8
 30
0.0
 11
50.619892
 21
17.071385
 31
0.0
  0
LINE
  5
DE23
100
AcDbEntity
  8
BOTT-PCB
100
AcDbLine
 10
72.209663
 20
65.29
 30
0.0
 11
67.570337
 21
65.29
 31
0.0
  0
LINE
  5
DE25
100
AcDbEntity
  8
BOTT-PCB
100
AcDbLine
 10
67.570337
 20
69.33
 30
0.0
 11
72.209663
 21
69.33
 31
0.0
  0
LINE
  5
DE27
100
AcDbEntity
  8
BOTT-PCB
100
AcDbLine
 10
73.74
 20
69.6265
 30
0.0
 11
78.450555
 21
69.6265
 31
0.0
  0
LINE
  5
DE2A
100
AcDbEntity
  8
BOTT-PCB
100
AcDbLine
 10
73.74
 20
64.9935
 30
0.0
 11
78.450555
 21
64.9935
 31
0.0
  0
LINE
  5
DE2B
100
AcDbEntity
  8
BOTT-PCB
100
AcDbLine
 10
78.450555
 20
64.9935
 30
0.0
 11
78.450555
 21
69.6265
 31
0.0
  0
LINE
  5
DE2C
100
AcDbEntity
  8
BOTT-PCB
100
AcDbLine
 10
66.04
 20
64.9935
 30
0.0
 11
63.450889
 21
64.9935
 31
0.0
  0
LINE
  5
DE33
100
AcDbEntity
  8
BOTT-PCB
100
AcDbLine
 10
63.488201
 20
76.302943
 30
0.0
 11
63.488201
 21
69.629035
 31
0.0
  0
LINE
  5
DE34
100
AcDbEntity
  8
BOTT-PCB
100
AcDbLine
 10
63.488201
 20
69.629035
 30
0.0
 11
66.04
 21
69.6265
 31
0.0
  0
LINE
  5
DE35
100
AcDbEntity
  8
BOTT-PCB
100
AcDbLine
 10
57.241262
 20
63.916025
 30
0.0
 11
55.810662
 21
66.061925
 31
0.0
  0
LINE
  5
DE36
100
AcDbEntity
  8
BOTT-PCB
100
AcDbLine
 10
58.489338
 20
64.748075
 30
0.0
 11
57.058738
 21
66.893975
 31
0.0
  0
LINE
  5
DE37
100
AcDbEntity
  8
BOTT-PCB
100
AcDbLine
 10
36.9
 20
70.2
 30
0.0
 11
34.29
 21
73.68
 31
0.0
  0
LINE
  5
DE38
100
AcDbEntity
  8
BOTT-PCB
100
AcDbLine
 10
38.1
 20
71.1
 30
0.0
 11
35.49
 21
74.58
 31
0.0
  0
LINE
  5
DE39
100
AcDbEntity
  8
BOTT-PCB
100
AcDbLine
 10
0.75
 20
51.0235
 30
0.0
 11
0.75
 21
50.5765
 31
0.0
  0
LINE
  5
DE3A
100
AcDbEntity
  8
BOTT-PCB
100
AcDbLine
 10
-0.75
 20
51.0235
 30
0.0
 11
-0.75
 21
50.5765
 31
0.0
  0
LINE
  5
DE3D
100
AcDbEntity
  8
BOTT-PCB
100
AcDbLine
 10
-4.56
 20
50.259431
 30
0.0
 11
-4.56
 21
68.981388
 31
0.0
  0
LINE
  5
DE3E
100
AcDbEntity
  8
BOTT-PCB
100
AcDbLine
 10
-3.06
 20
51.340569
 30
0.0
 11
-3.06
 21
68.178612
 31
0.0
  0
LINE
  5
DE3F
100
AcDbEntity
  8
BOTT-PCB
100
AcDbLine
 10
-4.56
 20
68.981388
 30
0.0
 11
11.202918
 21
79.49
 31
0.0
  0
LINE
  5
DE40
100
AcDbEntity
  8
BOTT-PCB
100
AcDbLine
 10
-3.06
 20
68.178612
 30
0.0
 11
11.657082
 21
77.99
 31
0.0
  0
LINE
  5
DE41
100
AcDbEntity
  8
BOTT-PCB
100
AcDbLine
 10
11.202918
 20
79.49
 30
0.0
 11
49.993525
 21
79.49
 31
0.0
  0
LINE
  5
DE42
100
AcDbEntity
  8
BOTT-PCB
100
AcDbLine
 10
11.657082
 20
77.99
 30
0.0
 11
27.19
 21
77.99
 31
0.0
  0
LINE
  5
DE44
100
AcDbEntity
  8
BOTT-PCB
100
AcDbLine
 10
49.066475
 20
77.99
 30
0.0
 11
49.519458
 21
77.084033
 31
0.0
  0
LINE
  5
DE45
100
AcDbEntity
  8
BOTT-PCB
100
AcDbLine
 10
27.19
 20
77.246084
 30
0.0
 11
27.19
 21
77.99
 31
0.0
  0
LINE
  5
DE46
100
AcDbEntity
  8
BOTT-PCB
100
AcDbLine
 10
28.69
 20
77.2465
 30
0.0
 11
28.69
 21
77.99
 31
0.0
  0
LINE
  5
DE47
100
AcDbEntity
  8
BOTT-PCB
100
AcDbLine
 10
14.21226
 20
71.831512
 30
0.0
 11
13.574715
 21
73.744146
 31
0.0
  0
LINE
  5
DE48
100
AcDbEntity
  8
BOTT-PCB
100
AcDbLine
 10
15.635285
 20
72.305854
 30
0.0
 11
14.99774
 21
74.218488
 31
0.0
  0
LINE
  5
DE51
100
AcDbEntity
  8
BOTT-PCB
100
AcDbLine
 10
-4.56
 20
32.618612
 30
0.0
 11
-4.56
 21
50.8
 31
0.0
  0
LINE
  5
DE52
100
AcDbEntity
  8
BOTT-PCB
100
AcDbLine
 10
-3.06
 20
33.421388
 30
0.0
 11
-3.06
 21
44.97
 31
0.0
  0
LINE
  5
DE53
100
AcDbEntity
  8
BOTT-PCB
100
AcDbLine
 10
-0.75
 20
44.97
 30
0.0
 11
-3.06
 21
44.97
 31
0.0
  0
LINE
  5
DE54
100
AcDbEntity
  8
BOTT-PCB
100
AcDbLine
 10
-0.75
 20
46.47
 30
0.0
 11
-3.06
 21
46.47
 31
0.0
  0
LINE
  5
DE59
100
AcDbEntity
  8
BOTT-PCB
100
AcDbLine
 10
-3.06
 20
35.56
 30
0.0
 11
-3.06
 21
31.23
 31
0.0
  0
LINE
  5
DE5A
100
AcDbEntity
  8
BOTT-PCB
100
AcDbLine
 10
-4.56
 20
35.56
 30
0.0
 11
-4.56
 21
17.03
 31
0.0
  0
LINE
  5
DE5B
100
AcDbEntity
  8
BOTT-PCB
100
AcDbLine
 10
-3.06
 20
18.53
 30
0.0
 11
2.228861
 21
18.53
 31
0.0
  0
LINE
  5
DE5C
100
AcDbEntity
  8
BOTT-PCB
100
AcDbLine
 10
-4.56
 20
17.03
 30
0.0
 11
2.228861
 21
17.03
 31
0.0
  0
LINE
  5
DE5D
100
AcDbEntity
  8
BOTT-PCB
100
AcDbLine
 10
-1.530337
 20
29.73
 30
0.0
 11
-3.06
 21
29.73
 31
0.0
  0
LINE
  5
DE5E
100
AcDbEntity
  8
BOTT-PCB
100
AcDbLine
 10
-1.530337
 20
31.23
 30
0.0
 11
-3.06
 21
31.23
 31
0.0
  0
LINE
  5
DE5F
100
AcDbEntity
  8
BOTT-PCB
100
AcDbLine
 10
4.08
 20
66.56
 30
0.0
 11
1.530337
 21
66.56
 31
0.0
  0
LINE
  5
DE60
100
AcDbEntity
  8
BOTT-PCB
100
AcDbLine
 10
4.08
 20
68.06
 30
0.0
 11
1.530337
 21
68.06
 31
0.0
  0
LINE
  5
DE61
100
AcDbEntity
  8
BOTT-PCB
100
AcDbLine
 10
4.08
 20
64.02
 30
0.0
 11
1.530337
 21
64.02
 31
0.0
  0
LINE
  5
DE62
100
AcDbEntity
  8
BOTT-PCB
100
AcDbLine
 10
4.08
 20
65.52
 30
0.0
 11
1.530337
 21
65.52
 31
0.0
  0
LINE
  5
DE63
100
AcDbEntity
  8
BOTT-PCB
100
AcDbLine
 10
4.08
 20
61.48
 30
0.0
 11
1.530337
 21
61.48
 31
0.0
  0
LINE
  5
DE64
100
AcDbEntity
  8
BOTT-PCB
100
AcDbLine
 10
4.08
 20
62.98
 30
0.0
 11
1.530337
 21
62.98
 31
0.0
  0
LINE
  5
DE67
100
AcDbEntity
  8
BOTT-PCB
100
AcDbLine
 10
4.08
 20
58.94
 30
0.0
 11
1.530337
 21
58.94
 31
0.0
  0
LINE
  5
DE68
100
AcDbEntity
  8
BOTT-PCB
100
AcDbLine
 10
4.08
 20
60.44
 30
0.0
 11
1.530337
 21
60.44
 31
0.0
  0
LINE
  5
DE6B
100
AcDbEntity
  8
BOTT-PCB
100
AcDbLine
 10
4.08
 20
56.4
 30
0.0
 11
1.530337
 21
56.4
 31
0.0
  0
LINE
  5
DE6C
100
AcDbEntity
  8
BOTT-PCB
100
AcDbLine
 10
4.08
 20
57.9
 30
0.0
 11
1.530337
 21
57.9
 31
0.0
  0
LINE
  5
DE6D
100
AcDbEntity
  8
BOTT-PCB
100
AcDbLine
 10
1.530337
 20
36.31
 30
0.0
 11
6.62
 21
36.31
 31
0.0
  0
LINE
  5
DE6E
100
AcDbEntity
  8
BOTT-PCB
100
AcDbLine
 10
1.530337
 20
34.81
 30
0.0
 11
6.62
 21
34.81
 31
0.0
  0
LINE
  5
DE6F
100
AcDbEntity
  8
BOTT-PCB
100
AcDbLine
 10
8.37
 20
34.56
 30
0.0
 11
8.37
 21
31.23
 31
0.0
  0
LINE
  5
DE70
100
AcDbEntity
  8
BOTT-PCB
100
AcDbLine
 10
6.87
 20
34.56
 30
0.0
 11
6.87
 21
29.73
 31
0.0
  0
LINE
  5
DE71
100
AcDbEntity
  8
BOTT-PCB
100
AcDbLine
 10
8.37
 20
31.23
 30
0.0
 11
23.869663
 21
31.23
 31
0.0
  0
LINE
  5
DE72
100
AcDbEntity
  8
BOTT-PCB
100
AcDbLine
 10
6.87
 20
29.73
 30
0.0
 11
23.869663
 21
29.73
 31
0.0
  0
LINE
  5
DE73
100
AcDbEntity
  8
BOTT-PCB
100
AcDbLine
 10
12.18
 20
34.56
 30
0.0
 11
12.18
 21
33.77
 31
0.0
  0
LINE
  5
DE74
100
AcDbEntity
  8
BOTT-PCB
100
AcDbLine
 10
10.68
 20
34.56
 30
0.0
 11
10.68
 21
32.27
 31
0.0
  0
LINE
  5
DE75
100
AcDbEntity
  8
BOTT-PCB
100
AcDbLine
 10
12.18
 20
33.77
 30
0.0
 11
23.869663
 21
33.77
 31
0.0
  0
LINE
  5
DE76
100
AcDbEntity
  8
BOTT-PCB
100
AcDbLine
 10
10.68
 20
32.27
 30
0.0
 11
23.869663
 21
32.27
 31
0.0
  0
LINE
  5
DE77
100
AcDbEntity
  8
BOTT-PCB
100
AcDbLine
 10
23.869663
 20
34.81
 30
0.0
 11
16.24
 21
34.81
 31
0.0
  0
LINE
  5
DE78
100
AcDbEntity
  8
BOTT-PCB
100
AcDbLine
 10
23.869663
 20
36.31
 30
0.0
 11
16.24
 21
36.31
 31
0.0
  0
LINE
  5
DE79
100
AcDbEntity
  8
BOTT-PCB
100
AcDbLine
 10
1.530337
 20
38.85
 30
0.0
 11
12.18
 21
38.85
 31
0.0
  0
LINE
  5
DE7A
100
AcDbEntity
  8
BOTT-PCB
100
AcDbLine
 10
1.530337
 20
37.35
 30
0.0
 11
10.68
 21
37.35
 31
0.0
  0
LINE
  5
DE7B
100
AcDbEntity
  8
BOTT-PCB
100
AcDbLine
 10
12.18
 20
38.85
 30
0.0
 11
12.18
 21
36.56
 31
0.0
  0
LINE
  5
DE7C
100
AcDbEntity
  8
BOTT-PCB
100
AcDbLine
 10
10.68
 20
37.35
 30
0.0
 11
10.68
 21
36.56
 31
0.0
  0
LINE
  5
DE7D
100
AcDbEntity
  8
BOTT-PCB
100
AcDbLine
 10
1.530337
 20
41.39
 30
0.0
 11
15.99
 21
41.39
 31
0.0
  0
LINE
  5
DE7E
100
AcDbEntity
  8
BOTT-PCB
100
AcDbLine
 10
1.530337
 20
39.89
 30
0.0
 11
14.49
 21
39.89
 31
0.0
  0
LINE
  5
DE7F
100
AcDbEntity
  8
BOTT-PCB
100
AcDbLine
 10
15.99
 20
41.39
 30
0.0
 11
15.99
 21
36.56
 31
0.0
  0
LINE
  5
DE80
100
AcDbEntity
  8
BOTT-PCB
100
AcDbLine
 10
14.49
 20
39.89
 30
0.0
 11
14.49
 21
36.56
 31
0.0
  0
LINE
  5
DE81
100
AcDbEntity
  8
BOTT-PCB
100
AcDbLine
 10
1.530337
 20
43.93
 30
0.0
 11
10.68
 21
43.93
 31
0.0
  0
LINE
  5
DE82
100
AcDbEntity
  8
BOTT-PCB
100
AcDbLine
 10
1.530337
 20
42.43
 30
0.0
 11
18.3
 21
42.43
 31
0.0
  0
LINE
  5
DE83
100
AcDbEntity
  8
BOTT-PCB
100
AcDbLine
 10
19.8
 20
43.93
 30
0.0
 11
19.8
 21
41.39
 31
0.0
  0
LINE
  5
DE84
100
AcDbEntity
  8
BOTT-PCB
100
AcDbLine
 10
18.3
 20
42.43
 30
0.0
 11
18.3
 21
39.89
 31
0.0
  0
LINE
  5
DE85
100
AcDbEntity
  8
BOTT-PCB
100
AcDbLine
 10
19.8
 20
41.39
 30
0.0
 11
23.869663
 21
41.39
 31
0.0
  0
LINE
  5
DE86
100
AcDbEntity
  8
BOTT-PCB
100
AcDbLine
 10
18.3
 20
39.89
 30
0.0
 11
23.869663
 21
39.89
 31
0.0
  0
LINE
  5
DE87
100
AcDbEntity
  8
BOTT-PCB
100
AcDbLine
 10
12.18
 20
44.72
 30
0.0
 11
12.18
 21
43.93
 31
0.0
  0
LINE
  5
DE88
100
AcDbEntity
  8
BOTT-PCB
100
AcDbLine
 10
10.68
 20
44.72
 30
0.0
 11
10.68
 21
43.93
 31
0.0
  0
LINE
  5
DEA5
100
AcDbEntity
  8
BOTT-PCB
100
AcDbLine
 10
18.789663
 20
60.21
 30
0.0
 11
16.700772
 21
60.21
 31
0.0
  0
LINE
  5
DEA6
100
AcDbEntity
  8
BOTT-PCB
100
AcDbLine
 10
18.789663
 20
61.71
 30
0.0
 11
18.200772
 21
61.71
 31
0.0
  0
LINE
  5
DEA7
100
AcDbEntity
  8
BOTT-PCB
100
AcDbLine
 10
16.700772
 20
60.21
 30
0.0
 11
16.700772
 21
68.42422
 31
0.0
  0
LINE
  5
DEA8
100
AcDbEntity
  8
BOTT-PCB
100
AcDbLine
 10
18.200772
 20
61.71
 30
0.0
 11
18.200772
 21
69.92422
 31
0.0
  0
LINE
  5
DEA9
100
AcDbEntity
  8
BOTT-PCB
100
AcDbLine
 10
16.700772
 20
68.42422
 30
0.0
 11
15.80658
 21
68.42422
 31
0.0
  0
LINE
  5
DEAA
100
AcDbEntity
  8
BOTT-PCB
100
AcDbLine
 10
18.200772
 20
69.92422
 30
0.0
 11
15.604158
 21
69.92422
 31
0.0
  0
LINE
  5
DEAB
100
AcDbEntity
  8
BOTT-PCB
100
AcDbLine
 10
9.910991
 20
68.42422
 30
0.0
 11
8.37
 21
66.984337
 31
0.0
  0
LINE
  5
DEAC
100
AcDbEntity
  8
BOTT-PCB
100
AcDbLine
 10
9.319258
 20
69.92422
 30
0.0
 11
6.87
 21
67.635663
 31
0.0
  0
LINE
  5
DEAD
100
AcDbEntity
  8
BOTT-PCB
100
AcDbLine
 10
8.37
 20
66.984337
 30
0.0
 11
8.37
 21
48.082949
 31
0.0
  0
LINE
  5
DEAE
100
AcDbEntity
  8
BOTT-PCB
100
AcDbLine
 10
6.87
 20
67.635663
 30
0.0
 11
6.87
 21
48.437051
 31
0.0
  0
LINE
  5
DEAF
100
AcDbEntity
  8
BOTT-PCB
100
AcDbLine
 10
8.37
 20
48.082949
 30
0.0
 11
7.468034
 21
46.279017
 31
0.0
  0
LINE
  5
DEB0
100
AcDbEntity
  8
BOTT-PCB
100
AcDbLine
 10
6.87
 20
48.437051
 30
0.0
 11
6.126393
 21
46.949837
 31
0.0
  0
LINE
  5
DEB1
100
AcDbEntity
  8
BOTT-PCB
100
AcDbLine
 10
14.680983
 20
61.111966
 30
0.0
 11
13.45
 21
60.496475
 31
0.0
  0
LINE
  5
DEB2
100
AcDbEntity
  8
BOTT-PCB
100
AcDbLine
 10
14.010163
 20
62.453607
 30
0.0
 11
11.95
 21
61.423525
 31
0.0
  0
LINE
  5
DEB3
100
AcDbEntity
  8
BOTT-PCB
100
AcDbLine
 10
13.45
 20
60.496475
 30
0.0
 11
13.45
 21
56.19066
 31
0.0
  0
LINE
  5
DEB4
100
AcDbEntity
  8
BOTT-PCB
100
AcDbLine
 10
11.95
 20
61.423525
 30
0.0
 11
11.95
 21
55.56934
 31
0.0
  0
LINE
  5
DEB5
100
AcDbEntity
  8
BOTT-PCB
100
AcDbLine
 10
13.45
 20
56.19066
 30
0.0
 11
15.55066
 21
54.09
 31
0.0
  0
LINE
  5
DEB6
100
AcDbEntity
  8
BOTT-PCB
100
AcDbLine
 10
11.95
 20
55.56934
 30
0.0
 11
14.92934
 21
52.59
 31
0.0
  0
LINE
  5
DEB7
100
AcDbEntity
  8
BOTT-PCB
100
AcDbLine
 10
15.55066
 20
54.09
 30
0.0
 11
18.8
 21
54.09
 31
0.0
  0
LINE
  5
DEB8
100
AcDbEntity
  8
BOTT-PCB
100
AcDbLine
 10
14.92934
 20
52.59
 30
0.0
 11
19.3
 21
52.59
 31
0.0
  0
LINE
  5
DEB9
100
AcDbEntity
  8
BOTT-PCB
100
AcDbLine
 10
18.8
 20
54.09
 30
0.0
 11
23.38
 21
57.525
 31
0.0
  0
LINE
  5
DEBA
100
AcDbEntity
  8
BOTT-PCB
100
AcDbLine
 10
19.3
 20
52.59
 30
0.0
 11
24.88
 21
56.775
 31
0.0
  0
LINE
  5
DEBB
100
AcDbEntity
  8
BOTT-PCB
100
AcDbLine
 10
23.38
 20
57.525
 30
0.0
 11
23.38
 21
64.25
 31
0.0
  0
LINE
  5
DEBC
100
AcDbEntity
  8
BOTT-PCB
100
AcDbLine
 10
24.88
 20
56.775
 30
0.0
 11
24.88
 21
62.75
 31
0.0
  0
LINE
  5
DEBD
100
AcDbEntity
  8
BOTT-PCB
100
AcDbLine
 10
23.38
 20
64.25
 30
0.0
 11
26.489663
 21
64.25
 31
0.0
  0
LINE
  5
DEBE
100
AcDbEntity
  8
BOTT-PCB
100
AcDbLine
 10
24.88
 20
62.75
 30
0.0
 11
26.489663
 21
62.75
 31
0.0
  0
LINE
  5
DEBF
100
AcDbEntity
  8
BOTT-PCB
100
AcDbLine
 10
29.73
 20
52.330337
 30
0.0
 11
29.73
 21
54.29934
 31
0.0
  0
LINE
  5
DEC0
100
AcDbEntity
  8
BOTT-PCB
100
AcDbLine
 10
31.23
 20
52.330337
 30
0.0
 11
31.23
 21
54.92066
 31
0.0
  0
LINE
  5
DEC1
100
AcDbEntity
  8
BOTT-PCB
100
AcDbLine
 10
29.73
 20
54.29934
 30
0.0
 11
27.19
 21
56.83934
 31
0.0
  0
LINE
  5
DEC2
100
AcDbEntity
  8
BOTT-PCB
100
AcDbLine
 10
31.23
 20
54.92066
 30
0.0
 11
28.69
 21
57.46066
 31
0.0
  0
LINE
  5
DEC3
100
AcDbEntity
  8
BOTT-PCB
100
AcDbLine
 10
27.19
 20
56.83934
 30
0.0
 11
27.19
 21
59.913916
 31
0.0
  0
LINE
  5
DEC4
100
AcDbEntity
  8
BOTT-PCB
100
AcDbLine
 10
28.69
 20
57.46066
 30
0.0
 11
28.69
 21
59.9135
 31
0.0
  0
LINE
  5
DEC5
100
AcDbEntity
  8
BOTT-PCB
100
AcDbLine
 10
32.27
 20
52.330337
 30
0.0
 11
32.27
 21
55.702949
 31
0.0
  0
LINE
  5
DEC6
100
AcDbEntity
  8
BOTT-PCB
100
AcDbLine
 10
33.77
 20
52.330337
 30
0.0
 11
33.77
 21
56.057051
 31
0.0
  0
LINE
  5
DEC7
100
AcDbEntity
  8
BOTT-PCB
100
AcDbLine
 10
32.27
 20
55.702949
 30
0.0
 11
31.0
 21
58.242949
 31
0.0
  0
LINE
  5
DEC8
100
AcDbEntity
  8
BOTT-PCB
100
AcDbLine
 10
33.77
 20
56.057051
 30
0.0
 11
32.5
 21
58.597051
 31
0.0
  0
LINE
  5
DEC9
100
AcDbEntity
  8
BOTT-PCB
100
AcDbLine
 10
31.0
 20
58.242949
 30
0.0
 11
31.0
 21
64.229431
 31
0.0
  0
LINE
  5
DECA
100
AcDbEntity
  8
BOTT-PCB
100
AcDbLine
 10
32.5
 20
58.597051
 30
0.0
 11
32.5
 21
65.310569
 31
0.0
  0
LINE
  5
DECB
100
AcDbEntity
  8
BOTT-PCB
100
AcDbLine
 10
31.0
 20
64.229431
 30
0.0
 11
28.707792
 21
64.9935
 31
0.0
  0
LINE
  5
DECC
100
AcDbEntity
  8
BOTT-PCB
100
AcDbLine
 10
32.5
 20
65.310569
 30
0.0
 11
29.855913
 21
66.191932
 31
0.0
  0
LINE
  5
DED7
100
AcDbEntity
  8
BOTT-PCB
100
AcDbLine
 10
34.81
 20
52.330337
 30
0.0
 11
34.81
 21
55.702949
 31
0.0
  0
LINE
  5
DED8
100
AcDbEntity
  8
BOTT-PCB
100
AcDbLine
 10
36.31
 20
52.330337
 30
0.0
 11
36.31
 21
56.057051
 31
0.0
  0
LINE
  5
DED9
100
AcDbEntity
  8
BOTT-PCB
100
AcDbLine
 10
34.81
 20
55.702949
 30
0.0
 11
33.54
 21
58.242949
 31
0.0
  0
LINE
  5
DEDA
100
AcDbEntity
  8
BOTT-PCB
100
AcDbLine
 10
36.31
 20
56.057051
 30
0.0
 11
35.04
 21
58.597051
 31
0.0
  0
LINE
  5
DEDB
100
AcDbEntity
  8
BOTT-PCB
100
AcDbLine
 10
33.54
 20
58.242949
 30
0.0
 11
33.54
 21
67.132949
 31
0.0
  0
LINE
  5
DEDC
100
AcDbEntity
  8
BOTT-PCB
100
AcDbLine
 10
35.04
 20
58.597051
 30
0.0
 11
35.04
 21
67.487051
 31
0.0
  0
LINE
  5
DEDD
100
AcDbEntity
  8
BOTT-PCB
100
AcDbLine
 10
33.54
 20
67.132949
 30
0.0
 11
32.403609
 21
69.405731
 31
0.0
  0
LINE
  5
DEDE
100
AcDbEntity
  8
BOTT-PCB
100
AcDbLine
 10
35.04
 20
67.487051
 30
0.0
 11
33.636391
 21
70.294269
 31
0.0
  0
LINE
  5
DEDF
100
AcDbEntity
  8
BOTT-PCB
100
AcDbLine
 10
32.403609
 20
69.405731
 30
0.0
 11
31.43934
 21
70.37
 31
0.0
  0
LINE
  5
DEE0
100
AcDbEntity
  8
BOTT-PCB
100
AcDbLine
 10
33.636391
 20
70.294269
 30
0.0
 11
32.06066
 21
71.87
 31
0.0
  0
LINE
  5
DEE1
100
AcDbEntity
  8
BOTT-PCB
100
AcDbLine
 10
31.43934
 20
70.37
 30
0.0
 11
29.550337
 21
70.37
 31
0.0
  0
LINE
  5
DEE2
100
AcDbEntity
  8
BOTT-PCB
100
AcDbLine
 10
32.06066
 20
71.87
 30
0.0
 11
29.550337
 21
71.87
 31
0.0
  0
LINE
  5
DEE7
100
AcDbEntity
  8
BOTT-PCB
100
AcDbLine
 10
39.440848
 20
59.515473
 30
0.0
 11
39.440848
 21
74.353525
 31
0.0
  0
LINE
  5
DEE8
100
AcDbEntity
  8
BOTT-PCB
100
AcDbLine
 10
40.940848
 20
59.920895
 30
0.0
 11
40.940848
 21
72.853525
 31
0.0
  0
LINE
  5
DEE9
100
AcDbEntity
  8
BOTT-PCB
100
AcDbLine
 10
39.440848
 20
74.353525
 30
0.0
 11
41.5958
 21
74.353525
 31
0.0
  0
LINE
  5
DEEA
100
AcDbEntity
  8
BOTT-PCB
100
AcDbLine
 10
40.940848
 20
72.853525
 30
0.0
 11
41.712596
 21
72.853525
 31
0.0
  0
LINE
  5
DEEC
100
AcDbEntity
  8
BOTT-PCB
100
AcDbLine
 10
49.349663
 20
61.71
 30
0.0
 11
49.01
 21
61.71
 31
0.0
  0
LINE
  5
DEED
100
AcDbEntity
  8
BOTT-PCB
100
AcDbLine
 10
47.51
 20
60.21
 30
0.0
 11
47.51
 21
74.41
 31
0.0
  0
LINE
  5
DEEE
100
AcDbEntity
  8
BOTT-PCB
100
AcDbLine
 10
49.01
 20
61.71
 30
0.0
 11
49.01
 21
72.91
 31
0.0
  0
LINE
  5
DEEF
100
AcDbEntity
  8
BOTT-PCB
100
AcDbLine
 10
47.51
 20
74.41
 30
0.0
 11
49.349663
 21
74.41
 31
0.0
  0
LINE
  5
DEF0
100
AcDbEntity
  8
BOTT-PCB
100
AcDbLine
 10
49.01
 20
72.91
 30
0.0
 11
49.349663
 21
72.91
 31
0.0
  0
LINE
  5
DEF1
100
AcDbEntity
  8
BOTT-PCB
100
AcDbLine
 10
52.410337
 20
69.33
 30
0.0
 11
54.446054
 21
69.33
 31
0.0
  0
LINE
  5
DEF2
100
AcDbEntity
  8
BOTT-PCB
100
AcDbLine
 10
52.410337
 20
67.83
 30
0.0
 11
52.946054
 21
67.83
 31
0.0
  0
LINE
  5
DEF3
100
AcDbEntity
  8
BOTT-PCB
100
AcDbLine
 10
54.446054
 20
69.33
 30
0.0
 11
54.446054
 21
66.337598
 31
0.0
  0
LINE
  5
DEF4
100
AcDbEntity
  8
BOTT-PCB
100
AcDbLine
 10
52.946054
 20
67.83
 30
0.0
 11
52.946054
 21
65.881122
 31
0.0
  0
LINE
  5
DEF5
100
AcDbEntity
  8
BOTT-PCB
100
AcDbLine
 10
54.446054
 20
66.337598
 30
0.0
 11
57.550027
 21
61.71
 31
0.0
  0
LINE
  5
DEF6
100
AcDbEntity
  8
BOTT-PCB
100
AcDbLine
 10
52.946054
 20
65.881122
 30
0.0
 11
56.749973
 21
60.21
 31
0.0
  0
LINE
  5
DEF7
100
AcDbEntity
  8
BOTT-PCB
100
AcDbLine
 10
57.550027
 20
61.71
 30
0.0
 11
64.509663
 21
61.71
 31
0.0
  0
LINE
  5
DEF8
100
AcDbEntity
  8
BOTT-PCB
100
AcDbLine
 10
56.749973
 20
60.21
 30
0.0
 11
64.509663
 21
60.21
 31
0.0
  0
LINE
  5
DEFF
100
AcDbEntity
  8
BOTT-PCB
100
AcDbLine
 10
72.209663
 20
60.21
 30
0.0
 11
71.583525
 21
60.21
 31
0.0
  0
LINE
  5
DF00
100
AcDbEntity
  8
BOTT-PCB
100
AcDbLine
 10
72.209663
 20
61.71
 30
0.0
 11
70.656475
 21
61.71
 31
0.0
  0
LINE
  5
DF01
100
AcDbEntity
  8
BOTT-PCB
100
AcDbLine
 10
71.583525
 20
60.21
 30
0.0
 11
69.043525
 21
55.13
 31
0.0
  0
LINE
  5
DF02
100
AcDbEntity
  8
BOTT-PCB
100
AcDbLine
 10
70.656475
 20
61.71
 30
0.0
 11
68.116475
 21
56.63
 31
0.0
  0
LINE
  5
DF03
100
AcDbEntity
  8
BOTT-PCB
100
AcDbLine
 10
69.043525
 20
55.13
 30
0.0
 11
58.192918
 21
55.13
 31
0.0
  0
LINE
  5
DF04
100
AcDbEntity
  8
BOTT-PCB
100
AcDbLine
 10
68.116475
 20
56.63
 30
0.0
 11
58.647082
 21
56.63
 31
0.0
  0
LINE
  5
DF05
100
AcDbEntity
  8
BOTT-PCB
100
AcDbLine
 10
58.192918
 20
55.13
 30
0.0
 11
51.017668
 21
59.9135
 31
0.0
  0
LINE
  5
DF06
100
AcDbEntity
  8
BOTT-PCB
100
AcDbLine
 10
58.647082
 20
56.63
 30
0.0
 11
52.668701
 21
60.615587
 31
0.0
  0
LINE
  5
DF17
100
AcDbEntity
  8
BOTT-PCB
100
AcDbLine
 10
44.710337
 20
66.79
 30
0.0
 11
47.105
 21
66.79
 31
0.0
  0
LINE
  5
DF18
100
AcDbEntity
  8
BOTT-PCB
100
AcDbLine
 10
44.710337
 20
65.29
 30
0.0
 11
45.605
 21
65.29
 31
0.0
  0
LINE
  5
DF19
100
AcDbEntity
  8
BOTT-PCB
100
AcDbLine
 10
47.105
 20
66.79
 30
0.0
 11
47.105
 21
58.810492
 31
0.0
  0
LINE
  5
DF1A
100
AcDbEntity
  8
BOTT-PCB
100
AcDbLine
 10
45.605
 20
65.29
 30
0.0
 11
45.605
 21
58.029508
 31
0.0
  0
LINE
  5
DF1B
100
AcDbEntity
  8
BOTT-PCB
100
AcDbLine
 10
47.105
 20
58.810492
 30
0.0
 11
52.941417
 21
54.725
 31
0.0
  0
LINE
  5
DF1C
100
AcDbEntity
  8
BOTT-PCB
100
AcDbLine
 10
45.605
 20
58.029508
 30
0.0
 11
52.468583
 21
53.225
 31
0.0
  0
LINE
  5
DF1D
100
AcDbEntity
  8
BOTT-PCB
100
AcDbLine
 10
52.941417
 20
54.725
 30
0.0
 11
65.02
 21
54.725
 31
0.0
  0
LINE
  5
DF1E
100
AcDbEntity
  8
BOTT-PCB
100
AcDbLine
 10
52.468583
 20
53.225
 30
0.0
 11
64.52
 21
53.225
 31
0.0
  0
LINE
  5
DF1F
100
AcDbEntity
  8
BOTT-PCB
100
AcDbLine
 10
65.02
 20
54.725
 30
0.0
 11
68.06
 21
52.445
 31
0.0
  0
LINE
  5
DF20
100
AcDbEntity
  8
BOTT-PCB
100
AcDbLine
 10
64.52
 20
53.225
 30
0.0
 11
66.56
 21
51.695
 31
0.0
  0
LINE
  5
DF21
100
AcDbEntity
  8
BOTT-PCB
100
AcDbLine
 10
68.06
 20
52.445
 30
0.0
 11
68.06
 21
44.835
 31
0.0
  0
LINE
  5
DF22
100
AcDbEntity
  8
BOTT-PCB
100
AcDbLine
 10
66.56
 20
51.695
 30
0.0
 11
66.56
 21
45.335
 31
0.0
  0
LINE
  5
DF23
100
AcDbEntity
  8
BOTT-PCB
100
AcDbLine
 10
68.06
 20
44.835
 30
0.0
 11
65.78
 21
41.795
 31
0.0
  0
LINE
  5
DF24
100
AcDbEntity
  8
BOTT-PCB
100
AcDbLine
 10
66.56
 20
45.335
 30
0.0
 11
65.03
 21
43.295
 31
0.0
  0
LINE
  5
DF25
100
AcDbEntity
  8
BOTT-PCB
100
AcDbLine
 10
65.78
 20
41.795
 30
0.0
 11
32.857543
 21
41.795
 31
0.0
  0
LINE
  5
DF26
100
AcDbEntity
  8
BOTT-PCB
100
AcDbLine
 10
65.03
 20
43.295
 30
0.0
 11
33.182457
 21
43.295
 31
0.0
  0
LINE
  5
DF27
100
AcDbEntity
  8
BOTT-PCB
100
AcDbLine
 10
32.857543
 20
41.795
 30
0.0
 11
18.887543
 21
48.145
 31
0.0
  0
LINE
  5
DF28
100
AcDbEntity
  8
BOTT-PCB
100
AcDbLine
 10
33.182457
 20
43.295
 30
0.0
 11
19.212457
 21
49.645
 31
0.0
  0
LINE
  5
DF29
100
AcDbEntity
  8
BOTT-PCB
100
AcDbLine
 10
18.887543
 20
48.145
 30
0.0
 11
11.640357
 21
48.145
 31
0.0
  0
LINE
  5
DF2A
100
AcDbEntity
  8
BOTT-PCB
100
AcDbLine
 10
19.212457
 20
49.645
 30
0.0
 11
12.489643
 21
49.645
 31
0.0
  0
LINE
  5
DF2B
100
AcDbEntity
  8
BOTT-PCB
100
AcDbLine
 10
11.640357
 20
48.145
 30
0.0
 11
9.41
 21
51.862262
 31
0.0
  0
LINE
  5
DF2C
100
AcDbEntity
  8
BOTT-PCB
100
AcDbLine
 10
12.489643
 20
49.645
 30
0.0
 11
10.91
 21
52.277738
 31
0.0
  0
LINE
  5
DF2D
100
AcDbEntity
  8
BOTT-PCB
100
AcDbLine
 10
9.41
 20
51.862262
 30
0.0
 11
9.41
 21
65.52
 31
0.0
  0
LINE
  5
DF2E
100
AcDbEntity
  8
BOTT-PCB
100
AcDbLine
 10
10.91
 20
52.277738
 30
0.0
 11
10.91
 21
64.02
 31
0.0
  0
LINE
  5
DF2F
100
AcDbEntity
  8
BOTT-PCB
100
AcDbLine
 10
9.41
 20
65.52
 30
0.0
 11
14.24
 21
65.52
 31
0.0
  0
LINE
  5
DF30
100
AcDbEntity
  8
BOTT-PCB
100
AcDbLine
 10
10.91
 20
64.02
 30
0.0
 11
14.24
 21
64.02
 31
0.0
  0
LINE
  5
DF31
100
AcDbEntity
  8
BOTT-PCB
100
AcDbLine
 10
63.450889
 20
64.9935
 30
0.0
 11
63.450889
 21
62.285344
 31
0.0
  0
LINE
  5
DF32
100
AcDbEntity
  8
BOTT-PCB
100
AcDbLine
 10
63.450889
 20
62.285344
 30
0.0
 11
60.84055
 21
62.285344
 31
0.0
  0
LINE
  5
DF33
100
AcDbEntity
  8
BOTT-PCB
100
AcDbLine
 10
60.84055
 20
62.285344
 30
0.0
 11
60.84055
 21
65.273922
 31
0.0
  0
LINE
  5
DF34
100
AcDbEntity
  8
BOTT-PCB
100
AcDbLine
 10
60.84055
 20
65.273922
 30
0.0
 11
54.963815
 21
73.295894
 31
0.0
  0
LINE
  5
DF35
100
AcDbEntity
  8
BOTT-PCB
100
AcDbLine
 10
54.963815
 20
73.295894
 30
0.0
 11
54.963815
 21
76.501147
 31
0.0
  0
LINE
  5
DF36
100
AcDbEntity
  8
BOTT-PCB
100
AcDbLine
 10
54.963815
 20
79.640069
 30
0.0
 11
63.516563
 21
79.640069
 31
0.0
  0
LINE
  5
DF37
100
AcDbEntity
  8
BOTT-PCB
100
AcDbLine
 10
63.516563
 20
79.640069
 30
0.0
 11
63.488201
 21
76.302943
 31
0.0
  0
ARC
  5
DF39
100
AcDbEntity
  8
BOTT-PCB
100
AcDbCircle
 10
46.99
 20
3.81
 30
0.0
 40
1.25
100
AcDbArc
 50
216.869898
 51
323.130102
  0
LINE
  5
DF3A
100
AcDbEntity
  8
BOTT-PCB
100
AcDbLine
 10
47.99
 20
4.56
 30
0.0
 11
54.88
 21
4.56
 31
0.0
  0
LINE
  5
DF3B
100
AcDbEntity
  8
BOTT-PCB
100
AcDbLine
 10
47.99
 20
3.06
 30
0.0
 11
54.88
 21
3.06
 31
0.0
  0
ARC
  5
DF3C
100
AcDbEntity
  8
BOTT-PCB
100
AcDbCircle
 10
55.88
 20
3.81
 30
0.0
 40
1.25
100
AcDbArc
 50
36.869898
 51
143.130102
  0
LINE
  5
DF3D
100
AcDbEntity
  8
BOTT-PCB
100
AcDbLine
 10
56.88
 20
4.56
 30
0.0
 11
65.862949
 21
4.56
 31
0.0
  0
LINE
  5
DF3E
100
AcDbEntity
  8
BOTT-PCB
100
AcDbLine
 10
56.88
 20
3.06
 30
0.0
 11
66.217051
 21
3.06
 31
0.0
  0
ARC
  5
DF3F
100
AcDbEntity
  8
BOTT-PCB
100
AcDbCircle
 10
68.58
 20
5.08
 30
0.0
 40
1.25
100
AcDbArc
 50
243.434949
 51
53.130102
  0
ARC
  5
DF40
100
AcDbEntity
  8
BOTT-PCB
100
AcDbCircle
 10
34.29
 20
10.16
 30
0.0
 40
1.25
100
AcDbArc
 50
261.869898
 51
287.592425
  0
LINE
  5
DF41
100
AcDbEntity
  8
BOTT-PCB
100
AcDbLine
 10
31.23
 20
6.87
 30
0.0
 11
32.06066
 21
6.87
 31
0.0
  0
ARC
  5
DF42
100
AcDbEntity
  8
BOTT-PCB
100
AcDbCircle
 10
11.43
 20
25.4
 30
0.0
 40
1.25
100
AcDbArc
 50
216.869898
 51
233.130102
  0
LINE
  5
DF43
100
AcDbEntity
  8
BOTT-PCB
100
AcDbLine
 10
12.43
 20
26.15
 30
0.0
 11
14.24
 21
26.15
 31
0.0
  0
LINE
  5
DF44
100
AcDbEntity
  8
BOTT-PCB
100
AcDbLine
 10
12.43
 20
24.65
 30
0.0
 11
14.24
 21
24.65
 31
0.0
  0
ARC
  5
DF45
100
AcDbEntity
  8
BOTT-PCB
100
AcDbCircle
 10
11.43
 20
25.4
 30
0.0
 40
1.25
100
AcDbArc
 50
306.869898
 51
323.130102
  0
LWPOLYLINE
  5
DF46
100
AcDbEntity
  8
BOTT-PCB
  6
CONTINUOUS
100
AcDbPolyline
 90
        5
 70
     0
 43
0.0
 10
1.530337
 20
42.43
 42
-0.195374
 10
0.8005
 20
42.1335
 10
-0.8005
 20
42.1335
 42
-1.0
 10
-0.8005
 20
44.2265
 10
-0.75
 20
44.2265
  0
ARC
  5
DF47
100
AcDbEntity
  8
BOTT-PCB
100
AcDbCircle
 10
11.43
 20
35.56
 30
0.0
 40
1.25
100
AcDbArc
 50
126.869898
 51
233.130102
  0
ARC
  5
DF48
100
AcDbEntity
  8
BOTT-PCB
100
AcDbCircle
 10
15.24
 20
35.56
 30
0.0
 40
1.25
100
AcDbArc
 50
36.869898
 51
53.130102
  0
ARC
  5
DF49
100
AcDbEntity
  8
BOTT-PCB
100
AcDbCircle
 10
7.62
 20
35.56
 30
0.0
 40
1.25
100
AcDbArc
 50
306.869898
 51
143.130102
  0
LINE
  5
DF4A
100
AcDbEntity
  8
BOTT-PCB
100
AcDbLine
 10
12.18
 20
43.93
 30
0.0
 11
19.8
 21
43.93
 31
0.0
  0
LINE
  5
DF4B
100
AcDbEntity
  8
BOTT-PCB
100
AcDbLine
 10
-3.06
 20
29.73
 30
0.0
 11
-3.06
 21
18.53
 31
0.0
  0
LINE
  5
DF4C
100
AcDbEntity
  8
BOTT-PCB
100
AcDbLine
 10
-0.75
 20
44.97
 30
0.0
 11
-0.75
 21
44.2265
 31
0.0
  0
LINE
  5
DF4D
100
AcDbEntity
  8
BOTT-PCB
100
AcDbLine
 10
-3.06
 20
46.47
 30
0.0
 11
-3.06
 21
50.8
 31
0.0
  0
LWPOLYLINE
  5
DF4E
100
AcDbEntity
  8
BOTT-PCB
  6
CONTINUOUS
100
AcDbPolyline
 90
        4
 70
     0
 43
0.0
 10
-0.75
 20
48.4835
 10
-0.8005
 20
48.4835
 42
-1.0
 10
-0.8005
 20
50.5765
 10
-0.75
 20
50.5765
  0
LINE
  5
DF4F
100
AcDbEntity
  8
BOTT-PCB
100
AcDbLine
 10
-0.75
 20
48.4835
 30
0.0
 11
-0.75
 21
46.47
 31
0.0
  0
LINE
  5
DF50
100
AcDbEntity
  8
BOTT-PCB
100
AcDbLine
 10
0.75
 20
48.4835
 30
0.0
 11
0.75
 21
44.2265
 31
0.0
  0
LINE
  5
DF51
100
AcDbEntity
  8
BOTT-PCB
100
AcDbLine
 10
-3.06
 20
51.340569
 30
0.0
 11
-3.06
 21
50.8
 31
0.0
  0
LINE
  5
DF52
100
AcDbEntity
  8
BOTT-PCB
100
AcDbLine
 10
28.69
 20
77.99
 30
0.0
 11
49.066475
 21
77.99
 31
0.0
  0
LWPOLYLINE
  5
DF53
100
AcDbEntity
  8
BOTT-PCB
  6
CONTINUOUS
100
AcDbPolyline
 90
        4
 70
     0
 43
0.0
 10
49.349663
 20
61.71
 42
-0.195374
 10
50.0795
 20
62.0065
 10
51.6805
 20
62.0065
 42
-0.51622
 10
52.668701
 20
60.615587
  0
LINE
  5
DF55
100
AcDbEntity
  8
BOTT-PCB
100
AcDbLine
 10
49.349663
 20
60.21
 30
0.0
 11
47.51
 21
60.21
 31
0.0
  0
LINE
  5
DF57
100
AcDbEntity
  8
BOTT-PCB
100
AcDbLine
 10
54.963815
 20
79.49
 30
0.0
 11
54.963815
 21
79.640069
 31
0.0
  0
LWPOLYLINE
  5
DF58
100
AcDbEntity
  8
BOTT-PCB
100
AcDbPolyline
 90
        2
 70
     0
 43
0.0
 10
54.963815
 20
76.501147
 10
52.682734
 20
76.501147
  0
LWPOLYLINE
  5
DF59
100
AcDbEntity
  8
BOTT-PCB
100
AcDbPolyline
 90
        2
 70
     0
 43
0.0
 10
49.993525
 20
79.49
 10
54.963815
 20
79.49
  0
ARC
  5
DF5A
100
AcDbEntity
  8
BOTT-PCB
  6
CONTINUOUS
100
AcDbCircle
 10
66.8405
 20
66.04
 30
0.0
 40
1.0465
100
AcDbArc
 50
269.999995
 51
314.21939
  0
LINE
  5
DF5B
100
AcDbEntity
  8
BOTT-PCB
  6
CONTINUOUS
100
AcDbLine
 10
66.8405
 20
64.9935
 30
0.0
 11
65.2395
 21
64.9935
 31
0.0
  0
LINE
  5
DF5F
100
AcDbEntity
  8
BOTT-PCB
  6
CONTINUOUS
100
AcDbLine
 10
74.5405
 20
64.9935
 30
0.0
 11
72.9395
 21
64.9935
 31
0.0
  0
ARC
  5
DF60
100
AcDbEntity
  8
BOTT-PCB
  6
CONTINUOUS
100
AcDbCircle
 10
72.9395
 20
66.04
 30
0.0
 40
1.0465
100
AcDbArc
 50
225.78061
 51
270.000005
  0
ARC
  5
DF62
100
AcDbEntity
  8
BOTT-PCB
  6
CONTINUOUS
100
AcDbCircle
 10
24.5995
 20
17.78
 30
0.0
 40
1.0465
100
AcDbArc
 50
89.999995
 51
214.875548
  0
LINE
  5
DF63
100
AcDbEntity
  8
BOTT-PCB
  6
CONTINUOUS
100
AcDbLine
 10
24.5995
 20
18.8265
 30
0.0
 11
26.2005
 21
18.8265
 31
0.0
  0
ARC
  5
DF64
100
AcDbEntity
  8
BOTT-PCB
  6
CONTINUOUS
100
AcDbCircle
 10
26.2005
 20
17.78
 30
0.0
 40
1.0465
100
AcDbArc
 50
269.999995
 51
90.000005
  0
LINE
  5
DF65
100
AcDbEntity
  8
BOTT-PCB
  6
CONTINUOUS
100
AcDbLine
 10
26.2005
 20
16.7335
 30
0.0
 11
25.41416
 21
16.7335
 31
0.0
  0
ARC
  5
DF66
100
AcDbEntity
  8
BOTT-PCB
  6
CONTINUOUS
100
AcDbCircle
 10
66.8405
 20
76.2
 30
0.0
 40
1.0465
100
AcDbArc
 50
269.999995
 51
34.875548
  0
LINE
  5
DF67
100
AcDbEntity
  8
BOTT-PCB
  6
CONTINUOUS
100
AcDbLine
 10
66.8405
 20
75.1535
 30
0.0
 11
65.2395
 21
75.1535
 31
0.0
  0
ARC
  5
DF68
100
AcDbEntity
  8
BOTT-PCB
  6
CONTINUOUS
100
AcDbCircle
 10
65.2395
 20
76.2
 30
0.0
 40
1.0465
100
AcDbArc
 50
89.999995
 51
270.000005
  0
LINE
  5
DF69
100
AcDbEntity
  8
BOTT-PCB
  6
CONTINUOUS
100
AcDbLine
 10
65.2395
 20
77.2465
 30
0.0
 11
66.02584
 21
77.2465
 31
0.0
  0
CIRCLE
  5
DF72
100
AcDbEntity
  8
TOP-PCB
100
AcDbCircle
 10
78.74
 20
33.02
 30
0.0
 40
1.75
  0
CIRCLE
  5
DF76
100
AcDbEntity
  8
TOP-PCB
100
AcDbCircle
 10
78.74
 20
38.1
 30
0.0
 40
1.75
  0
ARC
  5
DF7A
100
AcDbEntity
  8
TOP-PCB
100
AcDbCircle
 10
78.74
 20
43.18
 30
0.0
 40
1.75
100
AcDbArc
 50
205.376934
 51
154.623066
  0
ARC
  5
DF7E
100
AcDbEntity
  8
TOP-PCB
100
AcDbCircle
 10
78.74
 20
48.26
 30
0.0
 40
1.75
100
AcDbArc
 50
115.376934
 51
64.623066
  0
CIRCLE
  5
DF82
100
AcDbEntity
  8
TOP-PCB
100
AcDbCircle
 10
78.74
 20
25.4
 30
0.0
 40
1.75
  0
CIRCLE
  5
DF86
100
AcDbEntity
  8
TOP-PCB
100
AcDbCircle
 10
78.74
 20
20.32
 30
0.0
 40
1.75
  0
ARC
  5
DF8A
100
AcDbEntity
  8
TOP-PCB
100
AcDbCircle
 10
3.81
 20
12.7
 30
0.0
 40
1.75
100
AcDbArc
 50
321.941985
 51
271.188118
  0
CIRCLE
  5
DF8E
100
AcDbEntity
  8
TOP-PCB
100
AcDbCircle
 10
3.81
 20
17.78
 30
0.0
 40
1.75
  0
ARC
  5
DF92
100
AcDbEntity
  8
TOP-PCB
100
AcDbCircle
 10
72.39
 20
5.08
 30
0.0
 40
1.25
100
AcDbArc
 50
153.434949
 51
79.695154
  0
CIRCLE
  5
DF97
100
AcDbEntity
  8
TOP-PCB
100
AcDbCircle
 10
68.58
 20
5.08
 30
0.0
 40
1.25
  0
CIRCLE
  5
DF9C
100
AcDbEntity
  8
TOP-PCB
100
AcDbCircle
 10
55.88
 20
3.81
 30
0.0
 40
1.25
  0
ARC
  5
DFA1
100
AcDbEntity
  8
TOP-PCB
100
AcDbCircle
 10
55.88
 20
8.89
 30
0.0
 40
1.25
100
AcDbArc
 50
18.434949
 51
304.695154
  0
ARC
  5
DFA6
100
AcDbEntity
  8
TOP-PCB
100
AcDbCircle
 10
46.99
 20
8.89
 30
0.0
 40
1.25
100
AcDbArc
 50
261.869898
 51
188.130102
  0
CIRCLE
  5
DFAB
100
AcDbEntity
  8
TOP-PCB
100
AcDbCircle
 10
46.99
 20
3.81
 30
0.0
 40
1.25
  0
ARC
  5
DFB0
100
AcDbEntity
  8
TOP-PCB
100
AcDbCircle
 10
34.29
 20
10.16
 30
0.0
 40
1.25
100
AcDbArc
 50
126.869898
 51
53.130102
  0
ARC
  5
DFB5
100
AcDbEntity
  8
TOP-PCB
100
AcDbCircle
 10
29.21
 20
10.16
 30
0.0
 40
1.25
100
AcDbArc
 50
306.869898
 51
233.130102
  0
CIRCLE
  5
DFBA
100
AcDbEntity
  8
TOP-PCB
100
AcDbCircle
 10
15.24
 20
5.08
 30
0.0
 40
1.25
  0
CIRCLE
  5
DFBF
100
AcDbEntity
  8
TOP-PCB
100
AcDbCircle
 10
15.24
 20
10.16
 30
0.0
 40
1.25
  0
CIRCLE
  5
DFC4
100
AcDbEntity
  8
TOP-PCB
100
AcDbCircle
 10
15.24
 20
15.24
 30
0.0
 40
1.25
  0
CIRCLE
  5
DFC9
100
AcDbEntity
  8
TOP-PCB
100
AcDbCircle
 10
15.24
 20
17.78
 30
0.0
 40
1.25
  0
ARC
  5
DFCE
100
AcDbEntity
  8
TOP-PCB
100
AcDbCircle
 10
15.24
 20
25.4
 30
0.0
 40
1.25
100
AcDbArc
 50
90.0
 51
16.260205
  0
CIRCLE
  5
DFD3
100
AcDbEntity
  8
TOP-PCB
100
AcDbCircle
 10
11.43
 20
25.4
 30
0.0
 40
1.25
  0
ARC
  5
DFD8
100
AcDbEntity
  8
TOP-PCB
100
AcDbCircle
 10
7.62
 20
25.4
 30
0.0
 40
1.25
100
AcDbArc
 50
126.869898
 51
53.130102
  0
CIRCLE
  5
DFDD
100
AcDbEntity
  8
TOP-PCB
100
AcDbCircle
 10
7.62
 20
35.56
 30
0.0
 40
1.25
  0
CIRCLE
  5
DFE2
100
AcDbEntity
  8
TOP-PCB
100
AcDbCircle
 10
11.43
 20
35.56
 30
0.0
 40
1.25
  0
CIRCLE
  5
DFE7
100
AcDbEntity
  8
TOP-PCB
100
AcDbCircle
 10
15.24
 20
35.56
 30
0.0
 40
1.25
  0
ARC
  5
DFEC
100
AcDbEntity
  8
TOP-PCB
100
AcDbCircle
 10
11.43
 20
45.72
 30
0.0
 40
1.25
100
AcDbArc
 50
36.869898
 51
323.130102
  0
ARC
  5
DFF1
100
AcDbEntity
  8
TOP-PCB
100
AcDbCircle
 10
6.35
 20
45.72
 30
0.0
 40
1.25
100
AcDbArc
 50
285.068488
 51
211.328693
  0
CIRCLE
  5
DFF6
100
AcDbEntity
  8
TOP-PCB
100
AcDbCircle
 10
5.08
 20
57.15
 30
0.0
 40
1.25
  0
CIRCLE
  5
DFFB
100
AcDbEntity
  8
TOP-PCB
100
AcDbCircle
 10
5.08
 20
59.69
 30
0.0
 40
1.25
  0
CIRCLE
  5
E000
100
AcDbEntity
  8
TOP-PCB
100
AcDbCircle
 10
5.08
 20
62.23
 30
0.0
 40
1.25
  0
CIRCLE
  5
E005
100
AcDbEntity
  8
TOP-PCB
100
AcDbCircle
 10
5.08
 20
64.77
 30
0.0
 40
1.25
  0
CIRCLE
  5
E00A
100
AcDbEntity
  8
TOP-PCB
100
AcDbCircle
 10
5.08
 20
67.31
 30
0.0
 40
1.25
  0
ARC
  5
E00F
100
AcDbEntity
  8
TOP-PCB
100
AcDbCircle
 10
15.24
 20
57.15
 30
0.0
 40
1.25
100
AcDbArc
 50
198.434949
 51
124.695154
  0
ARC
  5
E014
100
AcDbEntity
  8
TOP-PCB
100
AcDbCircle
 10
15.24
 20
59.69
 30
0.0
 40
1.25
100
AcDbArc
 50
10.304846
 51
296.565051
  0
CIRCLE
  5
E019
100
AcDbEntity
  8
TOP-PCB
100
AcDbCircle
 10
15.24
 20
62.23
 30
0.0
 40
1.25
  0
CIRCLE
  5
E01E
100
AcDbEntity
  8
TOP-PCB
100
AcDbCircle
 10
15.24
 20
64.77
 30
0.0
 40
1.25
  0
ARC
  5
E023
100
AcDbEntity
  8
TOP-PCB
100
AcDbCircle
 10
15.24
 20
67.31
 30
0.0
 40
1.25
100
AcDbArc
 50
126.869898
 51
53.130102
  0
ARC
  5
E028
100
AcDbEntity
  8
TOP-PCB
100
AcDbCircle
 10
15.24
 20
71.12
 30
0.0
 40
1.25
100
AcDbArc
 50
306.869898
 51
233.130102
  0
ARC
  5
E02D
100
AcDbEntity
  8
TOP-PCB
100
AcDbCircle
 10
13.97
 20
74.93
 30
0.0
 40
1.25
100
AcDbArc
 50
126.869898
 51
53.130102
  0
ARC
  5
E032
100
AcDbEntity
  8
TOP-PCB
100
AcDbCircle
 10
34.29
 20
74.93
 30
0.0
 40
1.25
100
AcDbArc
 50
171.869898
 51
98.130102
  0
ARC
  5
E037
100
AcDbEntity
  8
TOP-PCB
100
AcDbCircle
 10
38.1
 20
69.85
 30
0.0
 40
1.25
100
AcDbArc
 50
63.434949
 51
349.695154
  0
CIRCLE
  5
E03C
100
AcDbEntity
  8
TOP-PCB
100
AcDbCircle
 10
68.58
 20
27.94
 30
0.0
 40
1.25
  0
CIRCLE
  5
E041
100
AcDbEntity
  8
TOP-PCB
100
AcDbCircle
 10
68.58
 20
30.48
 30
0.0
 40
1.25
  0
ARC
  5
E046
100
AcDbEntity
  8
TOP-PCB
100
AcDbCircle
 10
68.58
 20
33.02
 30
0.0
 40
1.25
100
AcDbArc
 50
216.869898
 51
143.130102
  0
CIRCLE
  5
E04B
100
AcDbEntity
  8
TOP-PCB
100
AcDbCircle
 10
68.58
 20
35.56
 30
0.0
 40
1.25
  0
ARC
  5
E050
100
AcDbEntity
  8
TOP-PCB
100
AcDbCircle
 10
58.42
 20
63.5
 30
0.0
 40
1.25
100
AcDbArc
 50
261.869898
 51
188.130102
  0
ARC
  5
E055
100
AcDbEntity
  8
TOP-PCB
100
AcDbCircle
 10
55.88
 20
67.31
 30
0.0
 40
1.25
100
AcDbArc
 50
126.869898
 51
53.130102
  0
LWPOLYLINE
  5
E05B
100
AcDbEntity
  8
TOP-PCB
  6
CONTINUOUS
100
AcDbPolyline
 90
        4
 70
     1
 43
0.0
 10
64.3005
 20
21.3665
 42
-1.0
 10
64.3005
 20
19.2735
 10
62.6995
 20
19.2735
 42
-1.0
 10
62.6995
 20
21.3665
  0
LWPOLYLINE
  5
E05D
100
AcDbEntity
  8
TOP-PCB
  6
CONTINUOUS
100
AcDbPolyline
 90
        4
 70
     1
 43
0.0
 10
64.3005
 20
28.9865
 42
-1.0
 10
64.3005
 20
26.8935
 10
62.6995
 20
26.8935
 42
-1.0
 10
62.6995
 20
28.9865
  0
LWPOLYLINE
  5
E05F
100
AcDbEntity
  8
TOP-PCB
  6
CONTINUOUS
100
AcDbPolyline
 90
        6
 70
     0
 43
0.0
 10
61.969663
 20
26.15
 42
-0.195374
 10
62.6995
 20
26.4465
 10
64.3005
 20
26.4465
 42
-1.0
 10
64.3005
 20
24.3535
 10
62.6995
 20
24.3535
 42
-0.195374
 10
61.969663
 20
24.65
 42
-0.195374
  0
LWPOLYLINE
  5
E060
100
AcDbEntity
  8
TOP-PCB
  6
CONTINUOUS
100
AcDbPolyline
 90
        4
 70
     1
 43
0.0
 10
64.3005
 20
23.9065
 42
-1.0
 10
64.3005
 20
21.8135
 10
62.6995
 20
21.8135
 42
-1.0
 10
62.6995
 20
23.9065
  0
LWPOLYLINE
  5
E064
100
AcDbEntity
  8
TOP-PCB
  6
CONTINUOUS
100
AcDbPolyline
 90
        4
 70
     1
 43
0.0
 10
26.2005
 20
34.0665
 42
-1.0
 10
26.2005
 20
31.9735
 10
24.5995
 20
31.9735
 42
-1.0
 10
24.5995
 20
34.0665
  0
LWPOLYLINE
  5
E066
100
AcDbEntity
  8
TOP-PCB
  6
CONTINUOUS
100
AcDbPolyline
 90
        4
 70
     0
 43
0.0
 10
26.930337
 20
39.89
 42
-0.195374
 10
26.2005
 20
39.5935
 10
24.5995
 20
39.5935
 42
-0.195374
 10
23.869663
 20
39.89
 42
-0.195374
  0
LWPOLYLINE
  5
E068
100
AcDbEntity
  8
TOP-PCB
  6
CONTINUOUS
100
AcDbPolyline
 90
        4
 70
     0
 43
0.0
 10
26.930337
 20
37.35
 42
-0.195374
 10
26.2005
 20
37.0535
 10
24.5995
 20
37.0535
 42
-0.195374
 10
23.869663
 20
37.35
 42
-0.195374
  0
LWPOLYLINE
  5
E069
100
AcDbEntity
  8
TOP-PCB
  6
CONTINUOUS
100
AcDbPolyline
 90
        4
 70
     1
 43
0.0
 10
26.2005
 20
36.6065
 42
-1.0
 10
26.2005
 20
34.5135
 10
24.5995
 20
34.5135
 42
-1.0
 10
24.5995
 20
36.6065
  0
LWPOLYLINE
  5
E06D
100
AcDbEntity
  8
TOP-PCB
  6
CONTINUOUS
100
AcDbPolyline
 90
        6
 70
     0
 43
0.0
 10
23.869663
 20
23.61
 42
-0.195374
 10
24.5995
 20
23.9065
 10
26.2005
 20
23.9065
 42
-1.0
 10
26.2005
 20
21.8135
 10
24.5995
 20
21.8135
 42
-0.093898
 10
24.21669
 20
21.886029
 42
-0.093898
  0
LWPOLYLINE
  5
E06F
100
AcDbEntity
  8
TOP-PCB
  6
CONTINUOUS
100
AcDbPolyline
 90
        4
 70
     1
 43
0.0
 10
26.2005
 20
31.5265
 42
-1.0
 10
26.2005
 20
29.4335
 10
24.5995
 20
29.4335
 42
-1.0
 10
24.5995
 20
31.5265
  0
LWPOLYLINE
  5
E071
100
AcDbEntity
  8
TOP-PCB
  6
CONTINUOUS
100
AcDbPolyline
 90
        6
 70
     0
 43
0.0
 10
23.869663
 20
28.69
 42
-0.195374
 10
24.5995
 20
28.9865
 10
26.2005
 20
28.9865
 42
-1.0
 10
26.2005
 20
26.8935
 10
24.5995
 20
26.8935
 42
-0.195374
 10
23.869663
 20
27.19
 42
-0.195374
  0
LWPOLYLINE
  5
E072
100
AcDbEntity
  8
TOP-PCB
  6
CONTINUOUS
100
AcDbPolyline
 90
        6
 70
     0
 43
0.0
 10
23.904066
 20
26.182007
 42
-0.183744
 10
24.5995
 20
26.4465
 10
26.2005
 20
26.4465
 42
-1.0
 10
26.2005
 20
24.3535
 10
24.5995
 20
24.3535
 42
-0.206538
 10
23.838154
 20
24.682007
 42
-0.206538
  0
LWPOLYLINE
  5
E076
100
AcDbEntity
  8
TOP-PCB
  6
CONTINUOUS
100
AcDbPolyline
 90
        6
 70
     0
 43
0.0
 10
41.649663
 20
69.33
 42
-0.195374
 10
42.3795
 20
69.6265
 10
43.9805
 20
69.6265
 42
-1.0
 10
43.9805
 20
67.5335
 10
42.3795
 20
67.5335
 42
-0.195374
 10
41.649663
 20
67.83
 42
-0.195374
  0
LWPOLYLINE
  5
E078
100
AcDbEntity
  8
TOP-PCB
  6
CONTINUOUS
100
AcDbPolyline
 90
        6
 70
     0
 43
0.0
 10
44.710337
 20
75.45
 42
-0.195374
 10
43.9805
 20
75.1535
 10
42.3795
 20
75.1535
 42
-1.0
 10
42.3795
 20
77.2465
 10
43.9805
 20
77.2465
 42
-0.195374
 10
44.710337
 20
76.95
 42
-0.195374
  0
LWPOLYLINE
  5
E07A
100
AcDbEntity
  8
TOP-PCB
  6
CONTINUOUS
100
AcDbPolyline
 90
        4
 70
     1
 43
0.0
 10
43.9805
 20
74.7065
 42
-1.0
 10
43.9805
 20
72.6135
 10
42.3795
 20
72.6135
 42
-1.0
 10
42.3795
 20
74.7065
  0
LWPOLYLINE
  5
E07B
100
AcDbEntity
  8
TOP-PCB
  6
CONTINUOUS
100
AcDbPolyline
 90
        6
 70
     0
 43
0.0
 10
41.649663
 20
71.87
 42
-0.195374
 10
42.3795
 20
72.1665
 10
43.9805
 20
72.1665
 42
-1.0
 10
43.9805
 20
70.0735
 10
42.3795
 20
70.0735
 42
-0.195374
 10
41.649663
 20
70.37
 42
-0.195374
  0
LWPOLYLINE
  5
E07F
100
AcDbEntity
  8
TOP-PCB
  6
CONTINUOUS
100
AcDbPolyline
 90
        4
 70
     1
 43
0.0
 10
51.6005
 20
69.6265
 42
-1.0
 10
51.6005
 20
67.5335
 10
49.9995
 20
67.5335
 42
-1.0
 10
49.9995
 20
69.6265
  0
LWPOLYLINE
  5
E081
100
AcDbEntity
  8
TOP-PCB
  6
CONTINUOUS
100
AcDbPolyline
 90
        4
 70
     1
 43
0.0
 10
51.6005
 20
77.2465
 42
-1.0
 10
51.6005
 20
75.1535
 10
49.9995
 20
75.1535
 42
-1.0
 10
49.9995
 20
77.2465
  0
LWPOLYLINE
  5
E083
100
AcDbEntity
  8
TOP-PCB
  6
CONTINUOUS
100
AcDbPolyline
 90
        4
 70
     1
 43
0.0
 10
51.6005
 20
74.7065
 42
-1.0
 10
51.6005
 20
72.6135
 10
49.9995
 20
72.6135
 42
-1.0
 10
49.9995
 20
74.7065
  0
LWPOLYLINE
  5
E088
100
AcDbEntity
  8
TOP-PCB
  6
CONTINUOUS
100
AcDbPolyline
 90
        4
 70
     1
 43
0.0
 10
66.8405
 20
69.6265
 42
-1.0
 10
66.8405
 20
67.5335
 10
65.2395
 20
67.5335
 42
-1.0
 10
65.2395
 20
69.6265
  0
LWPOLYLINE
  5
E08A
100
AcDbEntity
  8
TOP-PCB
  6
CONTINUOUS
100
AcDbPolyline
 90
        4
 70
     1
 43
0.0
 10
66.8405
 20
77.2465
 42
-1.0
 10
66.8405
 20
75.1535
 10
65.2395
 20
75.1535
 42
-1.0
 10
65.2395
 20
77.2465
  0
LWPOLYLINE
  5
E08C
100
AcDbEntity
  8
TOP-PCB
  6
CONTINUOUS
100
AcDbPolyline
 90
        6
 70
     0
 43
0.0
 10
64.509663
 20
74.41
 42
-0.195374
 10
65.2395
 20
74.7065
 10
66.8405
 20
74.7065
 42
-1.0
 10
66.8405
 20
72.6135
 10
65.2395
 20
72.6135
 42
-0.195374
 10
64.509663
 20
72.91
 42
-0.195374
  0
LWPOLYLINE
  5
E08D
100
AcDbEntity
  8
TOP-PCB
  6
CONTINUOUS
100
AcDbPolyline
 90
        6
 70
     0
 43
0.0
 10
67.570337
 20
70.37
 42
-0.195374
 10
66.8405
 20
70.0735
 10
65.2395
 20
70.0735
 42
-1.0
 10
65.2395
 20
72.1665
 10
66.8405
 20
72.1665
 42
-0.195374
 10
67.570337
 20
71.87
 42
-0.195374
  0
LWPOLYLINE
  5
E091
100
AcDbEntity
  8
TOP-PCB
  6
CONTINUOUS
100
AcDbPolyline
 90
        3
 70
     0
 43
0.0
 10
65.29
 20
57.3735
 10
65.2395
 20
57.3735
 42
-0.195374
 10
64.509663
 20
57.67
 42
-0.195374
  0
LWPOLYLINE
  5
E093
100
AcDbEntity
  8
TOP-PCB
  6
CONTINUOUS
100
AcDbPolyline
 90
        4
 70
     1
 43
0.0
 10
66.8405
 20
67.0865
 42
-1.0
 10
66.8405
 20
64.9935
 10
65.2395
 20
64.9935
 42
-1.0
 10
65.2395
 20
67.0865
  0
LWPOLYLINE
  5
E095
100
AcDbEntity
  8
TOP-PCB
  6
CONTINUOUS
100
AcDbPolyline
 90
        6
 70
     0
 43
0.0
 10
67.570337
 20
62.75
 42
-0.195374
 10
66.8405
 20
62.4535
 10
65.2395
 20
62.4535
 42
-1.0
 10
65.2395
 20
64.5465
 10
66.8405
 20
64.5465
 42
-0.195374
 10
67.570337
 20
64.25
 42
-0.195374
  0
LWPOLYLINE
  5
E096
100
AcDbEntity
  8
TOP-PCB
  6
CONTINUOUS
100
AcDbPolyline
 90
        4
 70
     1
 43
0.0
 10
66.8405
 20
62.0065
 42
-1.0
 10
66.8405
 20
59.9135
 10
65.2395
 20
59.9135
 42
-1.0
 10
65.2395
 20
62.0065
  0
LWPOLYLINE
  5
E09A
100
AcDbEntity
  8
TOP-PCB
  6
CONTINUOUS
100
AcDbPolyline
 90
        4
 70
     1
 43
0.0
 10
74.4605
 20
69.6265
 42
-1.0
 10
74.4605
 20
67.5335
 10
72.8595
 20
67.5335
 42
-1.0
 10
72.8595
 20
69.6265
  0
LWPOLYLINE
  5
E09C
100
AcDbEntity
  8
TOP-PCB
  6
CONTINUOUS
100
AcDbPolyline
 90
        6
 70
     0
 43
0.0
 10
75.190337
 20
75.45
 42
-0.195374
 10
74.4605
 20
75.1535
 10
72.8595
 20
75.1535
 42
-1.0
 10
72.8595
 20
77.2465
 10
74.4605
 20
77.2465
 42
-0.195374
 10
75.190337
 20
76.95
 42
-0.195374
  0
LWPOLYLINE
  5
E09E
100
AcDbEntity
  8
TOP-PCB
  6
CONTINUOUS
100
AcDbPolyline
 90
        6
 70
     0
 43
0.0
 10
72.129663
 20
74.41
 42
-0.195374
 10
72.8595
 20
74.7065
 10
74.4605
 20
74.7065
 42
-1.0
 10
74.4605
 20
72.6135
 10
72.8595
 20
72.6135
 42
-0.195374
 10
72.129663
 20
72.91
 42
-0.195374
  0
LWPOLYLINE
  5
E09F
100
AcDbEntity
  8
TOP-PCB
  6
CONTINUOUS
100
AcDbPolyline
 90
        4
 70
     1
 43
0.0
 10
74.4605
 20
72.1665
 42
-1.0
 10
74.4605
 20
70.0735
 10
72.8595
 20
70.0735
 42
-1.0
 10
72.8595
 20
72.1665
  0
LWPOLYLINE
  5
E0A3
100
AcDbEntity
  8
TOP-PCB
  6
CONTINUOUS
100
AcDbPolyline
 90
        4
 70
     1
 43
0.0
 10
74.4605
 20
59.4665
 42
-1.0
 10
74.4605
 20
57.3735
 10
72.8595
 20
57.3735
 42
-1.0
 10
72.8595
 20
59.4665
  0
LWPOLYLINE
  5
E0A5
100
AcDbEntity
  8
TOP-PCB
  6
CONTINUOUS
100
AcDbPolyline
 90
        4
 70
     1
 43
0.0
 10
74.4605
 20
67.0865
 42
-1.0
 10
74.4605
 20
64.9935
 10
72.8595
 20
64.9935
 42
-1.0
 10
72.8595
 20
67.0865
  0
LWPOLYLINE
  5
E0A7
100
AcDbEntity
  8
TOP-PCB
  6
CONTINUOUS
100
AcDbPolyline
 90
        4
 70
     1
 43
0.0
 10
74.4605
 20
64.5465
 42
-1.0
 10
74.4605
 20
62.4535
 10
72.8595
 20
62.4535
 42
-1.0
 10
72.8595
 20
64.5465
  0
LWPOLYLINE
  5
E0A8
100
AcDbEntity
  8
TOP-PCB
  6
CONTINUOUS
100
AcDbPolyline
 90
        4
 70
     1
 43
0.0
 10
74.4605
 20
62.0065
 42
-1.0
 10
74.4605
 20
59.9135
 10
72.8595
 20
59.9135
 42
-1.0
 10
72.8595
 20
62.0065
  0
LWPOLYLINE
  5
E0AC
100
AcDbEntity
  8
TOP-PCB
  6
CONTINUOUS
100
AcDbPolyline
 90
        4
 70
     1
 43
0.0
 10
21.1205
 20
69.6265
 42
-1.0
 10
21.1205
 20
67.5335
 10
19.5195
 20
67.5335
 42
-1.0
 10
19.5195
 20
69.6265
  0
LWPOLYLINE
  5
E0AE
100
AcDbEntity
  8
TOP-PCB
  6
CONTINUOUS
100
AcDbPolyline
 90
        4
 70
     1
 43
0.0
 10
21.1205
 20
77.2465
 42
-1.0
 10
21.1205
 20
75.1535
 10
19.5195
 20
75.1535
 42
-1.0
 10
19.5195
 20
77.2465
  0
LWPOLYLINE
  5
E0B0
100
AcDbEntity
  8
TOP-PCB
  6
CONTINUOUS
100
AcDbPolyline
 90
        4
 70
     1
 43
0.0
 10
21.1205
 20
74.7065
 42
-1.0
 10
21.1205
 20
72.6135
 10
19.5195
 20
72.6135
 42
-1.0
 10
19.5195
 20
74.7065
  0
LWPOLYLINE
  5
E0B1
100
AcDbEntity
  8
TOP-PCB
  6
CONTINUOUS
100
AcDbPolyline
 90
        4
 70
     1
 43
0.0
 10
21.1205
 20
72.1665
 42
-1.0
 10
21.1205
 20
70.0735
 10
19.5195
 20
70.0735
 42
-1.0
 10
19.5195
 20
72.1665
  0
LWPOLYLINE
  5
E0B5
100
AcDbEntity
  8
TOP-PCB
  6
CONTINUOUS
100
AcDbPolyline
 90
        6
 70
     0
 43
0.0
 10
26.409663
 20
69.33
 42
-0.195374
 10
27.1395
 20
69.6265
 10
28.7405
 20
69.6265
 42
-1.0
 10
28.7405
 20
67.5335
 10
27.1395
 20
67.5335
 42
-0.195374
 10
26.409663
 20
67.83
 42
-0.195374
  0
LWPOLYLINE
  5
E0B7
100
AcDbEntity
  8
TOP-PCB
  6
CONTINUOUS
100
AcDbPolyline
 90
        4
 70
     1
 43
0.0
 10
28.7405
 20
77.2465
 42
-1.0
 10
28.7405
 20
75.1535
 10
27.1395
 20
75.1535
 42
-1.0
 10
27.1395
 20
77.2465
  0
LWPOLYLINE
  5
E0B9
100
AcDbEntity
  8
TOP-PCB
  6
CONTINUOUS
100
AcDbPolyline
 90
        6
 70
     0
 43
0.0
 10
26.409663
 20
74.41
 42
-0.195374
 10
27.1395
 20
74.7065
 10
28.7405
 20
74.7065
 42
-1.0
 10
28.7405
 20
72.6135
 10
27.1395
 20
72.6135
 42
-0.195374
 10
26.409663
 20
72.91
 42
-0.195374
  0
LWPOLYLINE
  5
E0BA
100
AcDbEntity
  8
TOP-PCB
  6
CONTINUOUS
100
AcDbPolyline
 90
        4
 70
     1
 43
0.0
 10
28.7405
 20
72.1665
 42
-1.0
 10
28.7405
 20
70.0735
 10
27.1395
 20
70.0735
 42
-1.0
 10
27.1395
 20
72.1665
  0
LWPOLYLINE
  5
E0BE
100
AcDbEntity
  8
TOP-PCB
  6
CONTINUOUS
100
AcDbPolyline
 90
        4
 70
     1
 43
0.0
 10
0.8005
 20
60.7365
 42
-1.0
 10
0.8005
 20
58.6435
 10
-0.8005
 20
58.6435
 42
-1.0
 10
-0.8005
 20
60.7365
  0
LWPOLYLINE
  5
E0C0
100
AcDbEntity
  8
TOP-PCB
  6
CONTINUOUS
100
AcDbPolyline
 90
        4
 70
     1
 43
0.0
 10
0.8005
 20
68.3565
 42
-1.0
 10
0.8005
 20
66.2635
 10
-0.8005
 20
66.2635
 42
-1.0
 10
-0.8005
 20
68.3565
  0
LWPOLYLINE
  5
E0C2
100
AcDbEntity
  8
TOP-PCB
  6
CONTINUOUS
100
AcDbPolyline
 90
        4
 70
     1
 43
0.0
 10
0.8005
 20
65.8165
 42
-1.0
 10
0.8005
 20
63.7235
 10
-0.8005
 20
63.7235
 42
-1.0
 10
-0.8005
 20
65.8165
  0
LWPOLYLINE
  5
E0C3
100
AcDbEntity
  8
TOP-PCB
  6
CONTINUOUS
100
AcDbPolyline
 90
        4
 70
     1
 43
0.0
 10
0.8005
 20
63.2765
 42
-1.0
 10
0.8005
 20
61.1835
 10
-0.8005
 20
61.1835
 42
-1.0
 10
-0.8005
 20
63.2765
  0
LWPOLYLINE
  5
E0C7
100
AcDbEntity
  8
TOP-PCB
  6
CONTINUOUS
100
AcDbPolyline
 90
        4
 70
     1
 43
0.0
 10
0.8005
 20
50.5765
 42
-1.0
 10
0.8005
 20
48.4835
 10
-0.8005
 20
48.4835
 42
-1.0
 10
-0.8005
 20
50.5765
  0
LWPOLYLINE
  5
E0C9
100
AcDbEntity
  8
TOP-PCB
  6
CONTINUOUS
100
AcDbPolyline
 90
        4
 70
     1
 43
0.0
 10
0.8005
 20
58.1965
 42
-1.0
 10
0.8005
 20
56.1035
 10
-0.8005
 20
56.1035
 42
-1.0
 10
-0.8005
 20
58.1965
  0
LWPOLYLINE
  5
E0CB
100
AcDbEntity
  8
TOP-PCB
  6
CONTINUOUS
100
AcDbPolyline
 90
        6
 70
     0
 43
0.0
 10
1.530337
 20
53.86
 42
-0.195374
 10
0.8005
 20
53.5635
 10
-0.8005
 20
53.5635
 42
-1.0
 10
-0.8005
 20
55.6565
 10
0.8005
 20
55.6565
 42
-0.195374
 10
1.530337
 20
55.36
 42
-0.195374
  0
LWPOLYLINE
  5
E0CC
100
AcDbEntity
  8
TOP-PCB
  6
CONTINUOUS
100
AcDbPolyline
 90
        4
 70
     1
 43
0.0
 10
0.8005
 20
53.1165
 42
-1.0
 10
0.8005
 20
51.0235
 10
-0.8005
 20
51.0235
 42
-1.0
 10
-0.8005
 20
53.1165
  0
LWPOLYLINE
  5
E0D0
100
AcDbEntity
  8
TOP-PCB
  6
CONTINUOUS
100
AcDbPolyline
 90
        4
 70
     1
 43
0.0
 10
0.8005
 20
36.6065
 42
-1.0
 10
0.8005
 20
34.5135
 10
-0.8005
 20
34.5135
 42
-1.0
 10
-0.8005
 20
36.6065
  0
LWPOLYLINE
  5
E0D2
100
AcDbEntity
  8
TOP-PCB
  6
CONTINUOUS
100
AcDbPolyline
 90
        4
 70
     1
 43
0.0
 10
0.8005
 20
44.2265
 42
-1.0
 10
0.8005
 20
42.1335
 10
-0.8005
 20
42.1335
 42
-1.0
 10
-0.8005
 20
44.2265
  0
LWPOLYLINE
  5
E0D4
100
AcDbEntity
  8
TOP-PCB
  6
CONTINUOUS
100
AcDbPolyline
 90
        4
 70
     1
 43
0.0
 10
0.8005
 20
41.6865
 42
-1.0
 10
0.8005
 20
39.5935
 10
-0.8005
 20
39.5935
 42
-1.0
 10
-0.8005
 20
41.6865
  0
LWPOLYLINE
  5
E0D5
100
AcDbEntity
  8
TOP-PCB
  6
CONTINUOUS
100
AcDbPolyline
 90
        4
 70
     1
 43
0.0
 10
0.8005
 20
39.1465
 42
-1.0
 10
0.8005
 20
37.0535
 10
-0.8005
 20
37.0535
 42
-1.0
 10
-0.8005
 20
39.1465
  0
LWPOLYLINE
  5
E0D9
100
AcDbEntity
  8
TOP-PCB
  6
CONTINUOUS
100
AcDbPolyline
 90
        6
 70
     0
 43
0.0
 10
-0.75
 20
21.8135
 10
-0.8005
 20
21.8135
 42
-1.0
 10
-0.8005
 20
23.9065
 10
0.8005
 20
23.9065
 42
-1.0
 10
0.8005
 20
21.8135
 10
0.75
 20
21.8135
  0
LWPOLYLINE
  5
E0DB
100
AcDbEntity
  8
TOP-PCB
  6
CONTINUOUS
100
AcDbPolyline
 90
        4
 70
     1
 43
0.0
 10
0.8005
 20
31.5265
 42
-1.0
 10
0.8005
 20
29.4335
 10
-0.8005
 20
29.4335
 42
-1.0
 10
-0.8005
 20
31.5265
  0
LWPOLYLINE
  5
E0DD
100
AcDbEntity
  8
TOP-PCB
  6
CONTINUOUS
100
AcDbPolyline
 90
        6
 70
     0
 43
0.0
 10
1.530337
 20
27.19
 42
-0.195374
 10
0.8005
 20
26.8935
 10
-0.8005
 20
26.8935
 42
-1.0
 10
-0.8005
 20
28.9865
 10
0.8005
 20
28.9865
 42
-0.195374
 10
1.530337
 20
28.69
 42
-0.195374
  0
LWPOLYLINE
  5
E0DE
100
AcDbEntity
  8
TOP-PCB
  6
CONTINUOUS
100
AcDbPolyline
 90
        6
 70
     0
 43
0.0
 10
1.530337
 20
24.65
 42
-0.195374
 10
0.8005
 20
24.3535
 10
-0.8005
 20
24.3535
 42
-1.0
 10
-0.8005
 20
26.4465
 10
0.8005
 20
26.4465
 42
-0.195374
 10
1.530337
 20
26.15
 42
-0.195374
  0
LWPOLYLINE
  5
E0E2
100
AcDbEntity
  8
TOP-PCB
  6
CONTINUOUS
100
AcDbPolyline
 90
        4
 70
     1
 43
0.0
 10
69.3805
 20
13.7465
 42
-1.0
 10
69.3805
 20
11.6535
 10
67.7795
 20
11.6535
 42
-1.0
 10
67.7795
 20
13.7465
  0
LWPOLYLINE
  5
E0E6
100
AcDbEntity
  8
TOP-PCB
  6
CONTINUOUS
100
AcDbPolyline
 90
        4
 70
     1
 43
0.0
 10
69.3805
 20
16.2865
 42
-1.0
 10
69.3805
 20
14.1935
 10
67.7795
 20
14.1935
 42
-1.0
 10
67.7795
 20
16.2865
  0
LWPOLYLINE
  5
E0E8
100
AcDbEntity
  8
TOP-PCB
  6
CONTINUOUS
100
AcDbPolyline
 90
        4
 70
     1
 43
0.0
 10
28.7405
 20
62.0065
 42
-1.0
 10
28.7405
 20
59.9135
 10
27.1395
 20
59.9135
 42
-1.0
 10
27.1395
 20
62.0065
  0
LWPOLYLINE
  5
E0EB
100
AcDbEntity
  8
TOP-PCB
  6
CONTINUOUS
100
AcDbPolyline
 90
        4
 70
     1
 43
0.0
 10
28.7405
 20
67.0865
 42
-1.0
 10
28.7405
 20
64.9935
 10
27.1395
 20
64.9935
 42
-1.0
 10
27.1395
 20
67.0865
  0
LWPOLYLINE
  5
E0EC
100
AcDbEntity
  8
TOP-PCB
  6
CONTINUOUS
100
AcDbPolyline
 90
        4
 70
     1
 43
0.0
 10
28.7405
 20
64.5465
 42
-1.0
 10
28.7405
 20
62.4535
 10
27.1395
 20
62.4535
 42
-1.0
 10
27.1395
 20
64.5465
  0
LWPOLYLINE
  5
E0EE
100
AcDbEntity
  8
TOP-PCB
  6
CONTINUOUS
100
AcDbPolyline
 90
        4
 70
     1
 43
0.0
 10
21.1205
 20
62.0065
 42
-1.0
 10
21.1205
 20
59.9135
 10
19.5195
 20
59.9135
 42
-1.0
 10
19.5195
 20
62.0065
  0
LWPOLYLINE
  5
E0F1
100
AcDbEntity
  8
TOP-PCB
  6
CONTINUOUS
100
AcDbPolyline
 90
        4
 70
     1
 43
0.0
 10
21.1205
 20
67.0865
 42
-1.0
 10
21.1205
 20
64.9935
 10
19.5195
 20
64.9935
 42
-1.0
 10
19.5195
 20
67.0865
  0
LWPOLYLINE
  5
E0F2
100
AcDbEntity
  8
TOP-PCB
  6
CONTINUOUS
100
AcDbPolyline
 90
        4
 70
     1
 43
0.0
 10
21.1205
 20
64.5465
 42
-1.0
 10
21.1205
 20
62.4535
 10
19.5195
 20
62.4535
 42
-1.0
 10
19.5195
 20
64.5465
  0
LWPOLYLINE
  5
E0F4
100
AcDbEntity
  8
TOP-PCB
  6
CONTINUOUS
100
AcDbPolyline
 90
        5
 70
     0
 43
0.0
 10
42.864725
 20
59.9135
 10
42.3795
 20
59.9135
 42
-1.0
 10
42.3795
 20
62.0065
 10
43.9805
 20
62.0065
 42
-0.778286
 10
44.478682
 20
60.039687
 42
-0.778286
  0
LWPOLYLINE
  5
E0F7
100
AcDbEntity
  8
TOP-PCB
  6
CONTINUOUS
100
AcDbPolyline
 90
        4
 70
     1
 43
0.0
 10
43.9805
 20
67.0865
 42
-1.0
 10
43.9805
 20
64.9935
 10
42.3795
 20
64.9935
 42
-1.0
 10
42.3795
 20
67.0865
  0
LWPOLYLINE
  5
E0F8
100
AcDbEntity
  8
TOP-PCB
  6
CONTINUOUS
100
AcDbPolyline
 90
        6
 70
     0
 43
0.0
 10
41.649663
 20
64.25
 42
-0.195374
 10
42.3795
 20
64.5465
 10
43.9805
 20
64.5465
 42
-1.0
 10
43.9805
 20
62.4535
 10
42.3795
 20
62.4535
 42
-0.195374
 10
41.649663
 20
62.75
 42
-0.195374
  0
LWPOLYLINE
  5
E0FA
100
AcDbEntity
  8
TOP-PCB
  6
CONTINUOUS
100
AcDbPolyline
 90
        4
 70
     1
 43
0.0
 10
51.6005
 20
62.0065
 42
-1.0
 10
51.6005
 20
59.9135
 10
49.9995
 20
59.9135
 42
-1.0
 10
49.9995
 20
62.0065
  0
LWPOLYLINE
  5
E0FD
100
AcDbEntity
  8
TOP-PCB
  6
CONTINUOUS
100
AcDbPolyline
 90
        4
 70
     0
 43
0.0
 10
51.809413
 20
65.014565
 42
-0.050287
 10
51.6005
 20
64.9935
 10
49.9995
 20
64.9935
 42
-0.195374
 10
49.269663
 20
65.29
 42
-0.195374
  0
LWPOLYLINE
  5
E0FE
100
AcDbEntity
  8
TOP-PCB
  6
CONTINUOUS
100
AcDbPolyline
 90
        5
 70
     0
 43
0.0
 10
51.567792
 20
62.4535
 10
49.9995
 20
62.4535
 42
-1.0
 10
49.9995
 20
64.5465
 10
51.6005
 20
64.5465
 42
-0.364414
 10
52.631385
 20
63.680108
 42
-0.364414
  0
LWPOLYLINE
  5
E100
100
AcDbEntity
  8
TOP-PCB
  6
CONTINUOUS
100
AcDbPolyline
 90
        4
 70
     1
 43
0.0
 10
64.3005
 20
46.7665
 42
-1.0
 10
64.3005
 20
44.6735
 10
62.6995
 20
44.6735
 42
-1.0
 10
62.6995
 20
46.7665
  0
LWPOLYLINE
  5
E103
100
AcDbEntity
  8
TOP-PCB
  6
CONTINUOUS
100
AcDbPolyline
 90
        4
 70
     1
 43
0.0
 10
64.3005
 20
51.8465
 42
-1.0
 10
64.3005
 20
49.7535
 10
62.6995
 20
49.7535
 42
-1.0
 10
62.6995
 20
51.8465
  0
LWPOLYLINE
  5
E104
100
AcDbEntity
  8
TOP-PCB
  6
CONTINUOUS
100
AcDbPolyline
 90
        4
 70
     1
 43
0.0
 10
64.3005
 20
49.3065
 42
-1.0
 10
64.3005
 20
47.2135
 10
62.6995
 20
47.2135
 42
-1.0
 10
62.6995
 20
49.3065
  0
LWPOLYLINE
  5
E106
100
AcDbEntity
  8
TOP-PCB
  6
CONTINUOUS
100
AcDbPolyline
 90
        4
 70
     1
 43
0.0
 10
26.2005
 20
21.3665
 42
-1.0
 10
26.2005
 20
19.2735
 10
24.5995
 20
19.2735
 42
-1.0
 10
24.5995
 20
21.3665
  0
LWPOLYLINE
  5
E108
100
AcDbEntity
  8
TOP-PCB
  6
CONTINUOUS
100
AcDbPolyline
 90
        4
 70
     1
 43
0.0
 10
26.2005
 20
18.8265
 42
-1.0
 10
26.2005
 20
16.7335
 10
24.5995
 20
16.7335
 42
-1.0
 10
24.5995
 20
18.8265
  0
LWPOLYLINE
  5
E10A
100
AcDbEntity
  8
TOP-PCB
  6
CONTINUOUS
100
AcDbPolyline
 90
        4
 70
     1
 43
0.0
 10
44.6735
 20
16.0405
 42
-1.0
 10
46.7665
 20
16.0405
 10
46.7665
 20
14.4395
 42
-1.0
 10
44.6735
 20
14.4395
  0
LWPOLYLINE
  5
E10C
100
AcDbEntity
  8
TOP-PCB
  6
CONTINUOUS
100
AcDbPolyline
 90
        4
 70
     1
 43
0.0
 10
42.1335
 20
16.0405
 42
-1.0
 10
44.2265
 20
16.0405
 10
44.2265
 20
14.4395
 42
-1.0
 10
42.1335
 20
14.4395
  0
LWPOLYLINE
  5
E10F
100
AcDbEntity
  8
TOP-PCB
  6
CONTINUOUS
100
AcDbPolyline
 90
        4
 70
     1
 43
0.0
 10
49.7535
 20
16.0405
 42
-1.0
 10
51.8465
 20
16.0405
 10
51.8465
 20
14.4395
 42
-1.0
 10
49.7535
 20
14.4395
  0
LWPOLYLINE
  5
E111
100
AcDbEntity
  8
TOP-PCB
  6
CONTINUOUS
100
AcDbPolyline
 90
        4
 70
     1
 43
0.0
 10
47.2135
 20
16.0405
 42
-1.0
 10
49.3065
 20
16.0405
 10
49.3065
 20
14.4395
 42
-1.0
 10
47.2135
 20
14.4395
  0
LWPOLYLINE
  5
E114
100
AcDbEntity
  8
TOP-PCB
  6
CONTINUOUS
100
AcDbPolyline
 90
        6
 70
     0
 43
0.0
 10
28.69
 20
52.330337
 42
-0.195374
 10
28.9865
 20
51.6005
 10
28.9865
 20
49.9995
 42
-1.0
 10
26.8935
 20
49.9995
 10
26.8935
 20
51.6005
 42
-0.195374
 10
27.19
 20
52.330337
 42
-0.195374
  0
LWPOLYLINE
  5
E116
100
AcDbEntity
  8
TOP-PCB
  6
CONTINUOUS
100
AcDbPolyline
 90
        6
 70
     0
 43
0.0
 10
26.15
 20
52.330337
 42
-0.195374
 10
26.4465
 20
51.6005
 10
26.4465
 20
49.9995
 42
-1.0
 10
24.3535
 20
49.9995
 10
24.3535
 20
51.6005
 42
-0.195374
 10
24.65
 20
52.330337
 42
-0.195374
  0
LWPOLYLINE
  5
E119
100
AcDbEntity
  8
TOP-PCB
  6
CONTINUOUS
100
AcDbPolyline
 90
        4
 70
     1
 43
0.0
 10
31.9735
 20
51.6005
 42
-1.0
 10
34.0665
 20
51.6005
 10
34.0665
 20
49.9995
 42
-1.0
 10
31.9735
 20
49.9995
  0
LWPOLYLINE
  5
E11B
100
AcDbEntity
  8
TOP-PCB
  6
CONTINUOUS
100
AcDbPolyline
 90
        4
 70
     1
 43
0.0
 10
29.4335
 20
51.6005
 42
-1.0
 10
31.5265
 20
51.6005
 10
31.5265
 20
49.9995
 42
-1.0
 10
29.4335
 20
49.9995
  0
LWPOLYLINE
  5
E11E
100
AcDbEntity
  8
TOP-PCB
  6
CONTINUOUS
100
AcDbPolyline
 90
        6
 70
     0
 43
0.0
 10
38.85
 20
52.330337
 42
-0.195374
 10
39.1465
 20
51.6005
 10
39.1465
 20
49.9995
 42
-1.0
 10
37.0535
 20
49.9995
 10
37.0535
 20
51.6005
 42
-0.195374
 10
37.35
 20
52.330337
 42
-0.195374
  0
LWPOLYLINE
  5
E120
100
AcDbEntity
  8
TOP-PCB
  6
CONTINUOUS
100
AcDbPolyline
 90
        4
 70
     1
 43
0.0
 10
34.5135
 20
51.6005
 42
-1.0
 10
36.6065
 20
51.6005
 10
36.6065
 20
49.9995
 42
-1.0
 10
34.5135
 20
49.9995
  0
LWPOLYLINE
  5
E123
100
AcDbEntity
  8
TOP-PCB
  6
CONTINUOUS
100
AcDbPolyline
 90
        4
 70
     1
 43
0.0
 10
42.1335
 20
51.6005
 42
-1.0
 10
44.2265
 20
51.6005
 10
44.2265
 20
49.9995
 42
-1.0
 10
42.1335
 20
49.9995
  0
LWPOLYLINE
  5
E125
100
AcDbEntity
  8
TOP-PCB
  6
CONTINUOUS
100
AcDbPolyline
 90
        6
 70
     0
 43
0.0
 10
39.89
 20
49.269663
 42
-0.195374
 10
39.5935
 20
49.9995
 10
39.5935
 20
51.6005
 42
-1.0
 10
41.6865
 20
51.6005
 10
41.6865
 20
49.9995
 42
-0.195374
 10
41.39
 20
49.269663
 42
-0.195374
  0
LWPOLYLINE
  5
E128
100
AcDbEntity
  8
TOP-PCB
  6
CONTINUOUS
100
AcDbPolyline
 90
        6
 70
     0
 43
0.0
 10
47.51
 20
49.269663
 42
-0.195374
 10
47.2135
 20
49.9995
 10
47.2135
 20
51.6005
 42
-1.0
 10
49.3065
 20
51.6005
 10
49.3065
 20
49.9995
 42
-0.195374
 10
49.01
 20
49.269663
 42
-0.195374
  0
LWPOLYLINE
  5
E12A
100
AcDbEntity
  8
TOP-PCB
  6
CONTINUOUS
100
AcDbPolyline
 90
        4
 70
     1
 43
0.0
 10
44.6735
 20
51.6005
 42
-1.0
 10
46.7665
 20
51.6005
 10
46.7665
 20
49.9995
 42
-1.0
 10
44.6735
 20
49.9995
  0
LWPOLYLINE
  5
E12D
100
AcDbEntity
  8
TOP-PCB
  6
CONTINUOUS
100
AcDbPolyline
 90
        4
 70
     1
 43
0.0
 10
52.2935
 20
51.6005
 42
-1.0
 10
54.3865
 20
51.6005
 10
54.3865
 20
49.9995
 42
-1.0
 10
52.2935
 20
49.9995
  0
LWPOLYLINE
  5
E12F
100
AcDbEntity
  8
TOP-PCB
  6
CONTINUOUS
100
AcDbPolyline
 90
        4
 70
     1
 43
0.0
 10
49.7535
 20
51.6005
 42
-1.0
 10
51.8465
 20
51.6005
 10
51.8465
 20
49.9995
 42
-1.0
 10
49.7535
 20
49.9995
  0
LWPOLYLINE
  5
E132
100
AcDbEntity
  8
TOP-PCB
  6
CONTINUOUS
100
AcDbPolyline
 90
        4
 70
     1
 43
0.0
 10
57.3735
 20
51.6005
 42
-1.0
 10
59.4665
 20
51.6005
 10
59.4665
 20
49.9995
 42
-1.0
 10
57.3735
 20
49.9995
  0
LWPOLYLINE
  5
E134
100
AcDbEntity
  8
TOP-PCB
  6
CONTINUOUS
100
AcDbPolyline
 90
        4
 70
     1
 43
0.0
 10
54.8335
 20
51.6005
 42
-1.0
 10
56.9265
 20
51.6005
 10
56.9265
 20
49.9995
 42
-1.0
 10
54.8335
 20
49.9995
  0
LWPOLYLINE
  5
E137
100
AcDbEntity
  8
TOP-PCB
  6
CONTINUOUS
100
AcDbPolyline
 90
        4
 70
     1
 43
0.0
 10
29.4335
 20
4.6105
 42
-1.0
 10
31.5265
 20
4.6105
 10
31.5265
 20
3.0095
 42
-1.0
 10
29.4335
 20
3.0095
  0
LWPOLYLINE
  5
E139
100
AcDbEntity
  8
TOP-PCB
  6
CONTINUOUS
100
AcDbPolyline
 90
        6
 70
     0
 43
0.0
 10
27.19
 20
2.279663
 42
-0.195374
 10
26.8935
 20
3.0095
 10
26.8935
 20
4.6105
 42
-1.0
 10
28.9865
 20
4.6105
 10
28.9865
 20
3.0095
 42
-0.195374
 10
28.69
 20
2.279663
 42
-0.195374
  0
LWPOLYLINE
  5
E13C
100
AcDbEntity
  8
TOP-PCB
  6
CONTINUOUS
100
AcDbPolyline
 90
        4
 70
     1
 43
0.0
 10
59.9135
 20
16.0405
 42
-1.0
 10
62.0065
 20
16.0405
 10
62.0065
 20
14.4395
 42
-1.0
 10
59.9135
 20
14.4395
  0
LWPOLYLINE
  5
E13F
100
AcDbEntity
  8
TOP-PCB
  6
CONTINUOUS
100
AcDbPolyline
 90
        4
 70
     1
 43
0.0
 10
52.2935
 20
16.0405
 42
-1.0
 10
54.3865
 20
16.0405
 10
54.3865
 20
14.4395
 42
-1.0
 10
52.2935
 20
14.4395
  0
LWPOLYLINE
  5
E142
100
AcDbEntity
  8
TOP-PCB
  6
CONTINUOUS
100
AcDbPolyline
 90
        3
 70
     0
 43
0.0
 10
33.77
 20
5.340337
 42
-0.195374
 10
34.0665
 20
4.6105
 10
34.0665
 20
4.56
  0
LINE
  5
E14A
100
AcDbEntity
  8
TOP-PCB
100
AcDbLine
 10
5.187927
 20
11.621197
 30
0.0
 11
10.623525
 21
0.75
 31
0.0
  0
LINE
  5
E14B
100
AcDbEntity
  8
TOP-PCB
100
AcDbLine
 10
3.846286
 20
10.950376
 30
0.0
 11
9.696475
 21
-0.75
 31
0.0
  0
LINE
  5
E14C
100
AcDbEntity
  8
TOP-PCB
100
AcDbLine
 10
10.623525
 20
0.75
 30
0.0
 11
27.19
 21
0.75
 31
0.0
  0
LINE
  5
E14D
100
AcDbEntity
  8
TOP-PCB
100
AcDbLine
 10
9.696475
 20
-0.75
 30
0.0
 11
75.393525
 21
-0.75
 31
0.0
  0
LINE
  5
E14E
100
AcDbEntity
  8
TOP-PCB
100
AcDbLine
 10
74.466475
 20
0.75
 30
0.0
 11
83.07
 21
17.957051
 31
0.0
  0
LINE
  5
E14F
100
AcDbEntity
  8
TOP-PCB
100
AcDbLine
 10
75.393525
 20
-0.75
 30
0.0
 11
84.57
 21
17.602949
 31
0.0
  0
LINE
  5
E150
100
AcDbEntity
  8
TOP-PCB
100
AcDbLine
 10
83.07
 20
17.957051
 30
0.0
 11
83.07
 21
54.402262
 31
0.0
  0
LINE
  5
E151
100
AcDbEntity
  8
TOP-PCB
100
AcDbLine
 10
84.57
 20
17.602949
 30
0.0
 11
84.57
 21
54.817738
 31
0.0
  0
LINE
  5
E152
100
AcDbEntity
  8
TOP-PCB
100
AcDbLine
 10
83.07
 20
54.402262
 30
0.0
 11
79.26
 21
60.752262
 31
0.0
  0
LINE
  5
E153
100
AcDbEntity
  8
TOP-PCB
100
AcDbLine
 10
84.57
 20
54.817738
 30
0.0
 11
80.76
 21
61.167738
 31
0.0
  0
LINE
  5
E154
100
AcDbEntity
  8
TOP-PCB
100
AcDbLine
 10
79.26
 20
60.752262
 30
0.0
 11
79.26
 21
73.34934
 31
0.0
  0
LINE
  5
E155
100
AcDbEntity
  8
TOP-PCB
100
AcDbLine
 10
80.76
 20
61.167738
 30
0.0
 11
80.76
 21
73.97066
 31
0.0
  0
LINE
  5
E156
100
AcDbEntity
  8
TOP-PCB
100
AcDbLine
 10
79.26
 20
73.34934
 30
0.0
 11
77.15934
 21
75.45
 31
0.0
  0
LINE
  5
E157
100
AcDbEntity
  8
TOP-PCB
100
AcDbLine
 10
80.76
 20
73.97066
 30
0.0
 11
77.78066
 21
76.95
 31
0.0
  0
LINE
  5
E158
100
AcDbEntity
  8
TOP-PCB
100
AcDbLine
 10
77.15934
 20
75.45
 30
0.0
 11
75.190337
 21
75.45
 31
0.0
  0
LINE
  5
E159
100
AcDbEntity
  8
TOP-PCB
100
AcDbLine
 10
77.78066
 20
76.95
 30
0.0
 11
75.190337
 21
76.95
 31
0.0
  0
LINE
  5
E15A
100
AcDbEntity
  8
TOP-PCB
100
AcDbLine
 10
28.69
 20
2.279663
 30
0.0
 11
28.69
 21
0.75
 31
0.0
  0
LINE
  5
E15B
100
AcDbEntity
  8
TOP-PCB
100
AcDbLine
 10
27.19
 20
2.279663
 30
0.0
 11
27.19
 21
0.75
 31
0.0
  0
LINE
  5
E15C
100
AcDbEntity
  8
TOP-PCB
100
AcDbLine
 10
14.054146
 20
56.754715
 30
0.0
 11
10.68
 21
57.879431
 31
0.0
  0
LINE
  5
E15D
100
AcDbEntity
  8
TOP-PCB
100
AcDbLine
 10
14.528488
 20
58.17774
 30
0.0
 11
12.18
 21
58.960569
 31
0.0
  0
LINE
  5
E15E
100
AcDbEntity
  8
TOP-PCB
100
AcDbLine
 10
10.68
 20
57.879431
 30
0.0
 11
10.68
 21
72.975582
 31
0.0
  0
LINE
  5
E15F
100
AcDbEntity
  8
TOP-PCB
100
AcDbLine
 10
12.18
 20
58.960569
 30
0.0
 11
12.18
 21
71.804418
 31
0.0
  0
LINE
  5
E160
100
AcDbEntity
  8
TOP-PCB
100
AcDbLine
 10
10.68
 20
72.975582
 30
0.0
 11
13.65698
 21
73.719827
 31
0.0
  0
LINE
  5
E161
100
AcDbEntity
  8
TOP-PCB
100
AcDbLine
 10
12.18
 20
71.804418
 30
0.0
 11
17.26
 21
73.074418
 31
0.0
  0
LINE
  5
E162
100
AcDbEntity
  8
TOP-PCB
100
AcDbLine
 10
15.76
 20
74.245582
 30
0.0
 11
15.76
 21
77.933525
 31
0.0
  0
LINE
  5
E163
100
AcDbEntity
  8
TOP-PCB
100
AcDbLine
 10
17.26
 20
73.074418
 30
0.0
 11
17.26
 21
77.006475
 31
0.0
  0
LINE
  5
E164
100
AcDbEntity
  8
TOP-PCB
100
AcDbLine
 10
15.76
 20
77.933525
 30
0.0
 11
18.872949
 21
79.49
 31
0.0
  0
LINE
  5
E165
100
AcDbEntity
  8
TOP-PCB
100
AcDbLine
 10
17.26
 20
77.006475
 30
0.0
 11
19.227051
 21
77.99
 31
0.0
  0
LINE
  5
E166
100
AcDbEntity
  8
TOP-PCB
100
AcDbLine
 10
18.872949
 20
79.49
 30
0.0
 11
24.88
 21
79.49
 31
0.0
  0
LINE
  5
E167
100
AcDbEntity
  8
TOP-PCB
100
AcDbLine
 10
19.227051
 20
77.99
 30
0.0
 11
23.38
 21
77.99
 31
0.0
  0
LINE
  5
E168
100
AcDbEntity
  8
TOP-PCB
100
AcDbLine
 10
24.88
 20
79.49
 30
0.0
 11
24.88
 21
74.41
 31
0.0
  0
LINE
  5
E169
100
AcDbEntity
  8
TOP-PCB
100
AcDbLine
 10
23.38
 20
77.99
 30
0.0
 11
23.38
 21
72.91
 31
0.0
  0
LINE
  5
E16A
100
AcDbEntity
  8
TOP-PCB
100
AcDbLine
 10
24.88
 20
74.41
 30
0.0
 11
26.409663
 21
74.41
 31
0.0
  0
LINE
  5
E16B
100
AcDbEntity
  8
TOP-PCB
100
AcDbLine
 10
23.38
 20
72.91
 30
0.0
 11
26.409663
 21
72.91
 31
0.0
  0
LINE
  5
E16C
100
AcDbEntity
  8
TOP-PCB
100
AcDbLine
 10
13.22
 20
75.93
 30
0.0
 11
13.22
 21
79.141388
 31
0.0
  0
LINE
  5
E16D
100
AcDbEntity
  8
TOP-PCB
100
AcDbLine
 10
14.72
 20
75.93
 30
0.0
 11
14.72
 21
78.338612
 31
0.0
  0
LINE
  5
E16E
100
AcDbEntity
  8
TOP-PCB
100
AcDbLine
 10
13.22
 20
79.141388
 30
0.0
 11
17.552918
 21
82.03
 31
0.0
  0
LINE
  5
E16F
100
AcDbEntity
  8
TOP-PCB
100
AcDbLine
 10
14.72
 20
78.338612
 30
0.0
 11
18.007082
 21
80.53
 31
0.0
  0
LINE
  5
E170
100
AcDbEntity
  8
TOP-PCB
100
AcDbLine
 10
17.552918
 20
82.03
 30
0.0
 11
28.25066
 21
82.03
 31
0.0
  0
LINE
  5
E171
100
AcDbEntity
  8
TOP-PCB
100
AcDbLine
 10
18.007082
 20
80.53
 30
0.0
 11
27.62934
 21
80.53
 31
0.0
  0
LINE
  5
E172
100
AcDbEntity
  8
TOP-PCB
100
AcDbLine
 10
28.25066
 20
82.03
 30
0.0
 11
34.113223
 21
76.167437
 31
0.0
  0
LINE
  5
E173
100
AcDbEntity
  8
TOP-PCB
100
AcDbLine
 10
27.62934
 20
80.53
 30
0.0
 11
33.052563
 21
75.106777
 31
0.0
  0
LINE
  5
E174
100
AcDbEntity
  8
TOP-PCB
100
AcDbLine
 10
14.49
 20
68.31
 30
0.0
 11
14.49
 21
70.12
 31
0.0
  0
LINE
  5
E175
100
AcDbEntity
  8
TOP-PCB
100
AcDbLine
 10
15.99
 20
68.31
 30
0.0
 11
15.99
 21
70.12
 31
0.0
  0
LINE
  5
E176
100
AcDbEntity
  8
TOP-PCB
100
AcDbLine
 10
16.469837
 20
59.913607
 30
0.0
 11
20.497051
 21
57.9
 31
0.0
  0
LINE
  5
E177
100
AcDbEntity
  8
TOP-PCB
100
AcDbLine
 10
15.799017
 20
58.571966
 30
0.0
 11
20.142949
 21
56.4
 31
0.0
  0
LINE
  5
E178
100
AcDbEntity
  8
TOP-PCB
100
AcDbLine
 10
20.497051
 20
57.9
 30
0.0
 11
22.396475
 21
57.9
 31
0.0
  0
LINE
  5
E179
100
AcDbEntity
  8
TOP-PCB
100
AcDbLine
 10
20.142949
 20
56.4
 30
0.0
 11
23.323525
 21
56.4
 31
0.0
  0
LINE
  5
E17A
100
AcDbEntity
  8
TOP-PCB
100
AcDbLine
 10
22.396475
 20
57.9
 30
0.0
 11
23.38
 21
59.867051
 31
0.0
  0
LINE
  5
E17B
100
AcDbEntity
  8
TOP-PCB
100
AcDbLine
 10
23.323525
 20
56.4
 30
0.0
 11
24.88
 21
59.512949
 31
0.0
  0
LINE
  5
E17C
100
AcDbEntity
  8
TOP-PCB
100
AcDbLine
 10
23.38
 20
59.867051
 30
0.0
 11
23.38
 21
69.33
 31
0.0
  0
LINE
  5
E17D
100
AcDbEntity
  8
TOP-PCB
100
AcDbLine
 10
24.88
 20
59.512949
 30
0.0
 11
24.88
 21
67.83
 31
0.0
  0
LINE
  5
E17E
100
AcDbEntity
  8
TOP-PCB
100
AcDbLine
 10
23.38
 20
69.33
 30
0.0
 11
26.409663
 21
69.33
 31
0.0
  0
LINE
  5
E17F
100
AcDbEntity
  8
TOP-PCB
100
AcDbLine
 10
24.88
 20
67.83
 30
0.0
 11
26.409663
 21
67.83
 31
0.0
  0
LINE
  5
E180
100
AcDbEntity
  8
TOP-PCB
100
AcDbLine
 10
38.659017
 20
70.968034
 30
0.0
 11
40.462949
 21
71.87
 31
0.0
  0
LINE
  5
E181
100
AcDbEntity
  8
TOP-PCB
100
AcDbLine
 10
39.329837
 20
69.626393
 30
0.0
 11
40.817051
 21
70.37
 31
0.0
  0
LINE
  5
E182
100
AcDbEntity
  8
TOP-PCB
100
AcDbLine
 10
40.462949
 20
71.87
 30
0.0
 11
41.649663
 21
71.87
 31
0.0
  0
LINE
  5
E183
100
AcDbEntity
  8
TOP-PCB
100
AcDbLine
 10
40.817051
 20
70.37
 30
0.0
 11
41.649663
 21
70.37
 31
0.0
  0
LINE
  5
E184
100
AcDbEntity
  8
TOP-PCB
100
AcDbLine
 10
55.13
 20
68.31
 30
0.0
 11
55.13
 21
72.597738
 31
0.0
  0
LINE
  5
E185
100
AcDbEntity
  8
TOP-PCB
100
AcDbLine
 10
56.63
 20
68.31
 30
0.0
 11
56.63
 21
72.182262
 31
0.0
  0
LINE
  5
E186
100
AcDbEntity
  8
TOP-PCB
100
AcDbLine
 10
55.13
 20
72.597738
 30
0.0
 11
59.265357
 21
79.49
 31
0.0
  0
LINE
  5
E187
100
AcDbEntity
  8
TOP-PCB
100
AcDbLine
 10
56.63
 20
72.182262
 30
0.0
 11
60.114643
 21
77.99
 31
0.0
  0
LINE
  5
E188
100
AcDbEntity
  8
TOP-PCB
100
AcDbLine
 10
59.265357
 20
79.49
 30
0.0
 11
68.89066
 21
79.49
 31
0.0
  0
LINE
  5
E189
100
AcDbEntity
  8
TOP-PCB
100
AcDbLine
 10
60.114643
 20
77.99
 30
0.0
 11
68.26934
 21
77.99
 31
0.0
  0
LINE
  5
E18A
100
AcDbEntity
  8
TOP-PCB
100
AcDbLine
 10
68.89066
 20
79.49
 30
0.0
 11
70.6
 21
77.78066
 31
0.0
  0
LINE
  5
E18B
100
AcDbEntity
  8
TOP-PCB
100
AcDbLine
 10
68.26934
 20
77.99
 30
0.0
 11
69.1
 21
77.15934
 31
0.0
  0
LINE
  5
E18C
100
AcDbEntity
  8
TOP-PCB
100
AcDbLine
 10
70.6
 20
77.78066
 30
0.0
 11
70.6
 21
74.41
 31
0.0
  0
LINE
  5
E18D
100
AcDbEntity
  8
TOP-PCB
100
AcDbLine
 10
69.1
 20
77.15934
 30
0.0
 11
69.1
 21
72.91
 31
0.0
  0
LINE
  5
E18E
100
AcDbEntity
  8
TOP-PCB
100
AcDbLine
 10
70.6
 20
74.41
 30
0.0
 11
72.129663
 21
74.41
 31
0.0
  0
LINE
  5
E18F
100
AcDbEntity
  8
TOP-PCB
100
AcDbLine
 10
69.1
 20
72.91
 30
0.0
 11
72.129663
 21
72.91
 31
0.0
  0
LINE
  5
E192
100
AcDbEntity
  8
TOP-PCB
100
AcDbLine
 10
52.631385
 20
63.680108
 30
0.0
 11
54.731708
 21
62.98
 31
0.0
  0
LINE
  5
E193
100
AcDbEntity
  8
TOP-PCB
100
AcDbLine
 10
51.567792
 20
62.4535
 30
0.0
 11
54.488292
 21
61.48
 31
0.0
  0
LINE
  5
E194
100
AcDbEntity
  8
TOP-PCB
100
AcDbLine
 10
54.731708
 20
62.98
 30
0.0
 11
56.83934
 21
62.98
 31
0.0
  0
LINE
  5
E195
100
AcDbEntity
  8
TOP-PCB
100
AcDbLine
 10
54.488292
 20
61.48
 30
0.0
 11
57.46066
 21
61.48
 31
0.0
  0
LINE
  5
E196
100
AcDbEntity
  8
TOP-PCB
100
AcDbLine
 10
56.83934
 20
62.98
 30
0.0
 11
57.182563
 21
63.323223
 31
0.0
  0
LINE
  5
E197
100
AcDbEntity
  8
TOP-PCB
100
AcDbLine
 10
57.46066
 20
61.48
 30
0.0
 11
58.243223
 21
62.262563
 31
0.0
  0
LINE
  5
E198
100
AcDbEntity
  8
TOP-PCB
100
AcDbLine
 10
52.595515
 20
66.364204
 30
0.0
 11
55.792742
 21
65.564897
 31
0.0
  0
LINE
  5
E19A
100
AcDbEntity
  8
TOP-PCB
100
AcDbLine
 10
55.792742
 20
65.564897
 30
0.0
 11
58.08459
 21
66.71082
 31
0.0
  0
LINE
  5
E19B
100
AcDbEntity
  8
TOP-PCB
100
AcDbLine
 10
55.967258
 20
63.975103
 30
0.0
 11
58.75541
 21
65.36918
 31
0.0
  0
LINE
  5
E19C
100
AcDbEntity
  8
TOP-PCB
100
AcDbLine
 10
58.08459
 20
66.71082
 30
0.0
 11
58.08459
 21
66.71082
 31
0.0
  0
LINE
  5
E19D
100
AcDbEntity
  8
TOP-PCB
100
AcDbLine
 10
58.08459
 20
66.71082
 30
0.0
 11
60.21
 21
67.773525
 31
0.0
  0
LINE
  5
E19E
100
AcDbEntity
  8
TOP-PCB
100
AcDbLine
 10
58.75541
 20
65.36918
 30
0.0
 11
58.75541
 21
65.36918
 31
0.0
  0
LINE
  5
E19F
100
AcDbEntity
  8
TOP-PCB
100
AcDbLine
 10
58.75541
 20
65.36918
 30
0.0
 11
61.71
 21
66.846475
 31
0.0
  0
LINE
  5
E1A0
100
AcDbEntity
  8
TOP-PCB
100
AcDbLine
 10
60.21
 20
67.773525
 30
0.0
 11
60.21
 21
74.41
 31
0.0
  0
LINE
  5
E1A1
100
AcDbEntity
  8
TOP-PCB
100
AcDbLine
 10
61.71
 20
66.846475
 30
0.0
 11
61.71
 21
72.91
 31
0.0
  0
LINE
  5
E1A2
100
AcDbEntity
  8
TOP-PCB
100
AcDbLine
 10
60.21
 20
74.41
 30
0.0
 11
64.509663
 21
74.41
 31
0.0
  0
LINE
  5
E1A3
100
AcDbEntity
  8
TOP-PCB
100
AcDbLine
 10
61.71
 20
72.91
 30
0.0
 11
64.509663
 21
72.91
 31
0.0
  0
LINE
  5
E1A4
100
AcDbEntity
  8
TOP-PCB
100
AcDbLine
 10
44.710337
 20
76.95
 30
0.0
 11
47.74
 21
76.95
 31
0.0
  0
LINE
  5
E1A5
100
AcDbEntity
  8
TOP-PCB
100
AcDbLine
 10
44.710337
 20
75.45
 30
0.0
 11
46.24
 21
75.45
 31
0.0
  0
LINE
  5
E1A6
100
AcDbEntity
  8
TOP-PCB
100
AcDbLine
 10
47.74
 20
76.95
 30
0.0
 11
47.74
 21
66.79
 31
0.0
  0
LINE
  5
E1A7
100
AcDbEntity
  8
TOP-PCB
100
AcDbLine
 10
46.24
 20
75.45
 30
0.0
 11
46.24
 21
65.29
 31
0.0
  0
LINE
  5
E1A8
100
AcDbEntity
  8
TOP-PCB
100
AcDbLine
 10
47.74
 20
66.79
 30
0.0
 11
49.269663
 21
66.79
 31
0.0
  0
LINE
  5
E1A9
100
AcDbEntity
  8
TOP-PCB
100
AcDbLine
 10
46.24
 20
65.29
 30
0.0
 11
49.269663
 21
65.29
 31
0.0
  0
LINE
  5
E1F6
100
AcDbEntity
  8
TOP-PCB
100
AcDbLine
 10
51.215949
 20
72.1665
 30
0.0
 11
52.780983
 21
72.949017
 31
0.0
  0
LINE
  5
E1F7
100
AcDbEntity
  8
TOP-PCB
100
AcDbLine
 10
52.643678
 20
71.203314
 30
0.0
 11
53.899017
 21
71.830983
 31
0.0
  0
LINE
  5
E1F8
100
AcDbEntity
  8
TOP-PCB
100
AcDbLine
 10
52.780983
 20
72.949017
 30
0.0
 11
53.86
 21
75.107051
 31
0.0
  0
LINE
  5
E1F9
100
AcDbEntity
  8
TOP-PCB
100
AcDbLine
 10
53.899017
 20
71.830983
 30
0.0
 11
55.36
 21
74.752949
 31
0.0
  0
LINE
  5
E1FA
100
AcDbEntity
  8
TOP-PCB
100
AcDbLine
 10
53.86
 20
75.107051
 30
0.0
 11
53.86
 21
77.006475
 31
0.0
  0
LINE
  5
E1FB
100
AcDbEntity
  8
TOP-PCB
100
AcDbLine
 10
55.36
 20
74.752949
 30
0.0
 11
55.36
 21
77.933525
 31
0.0
  0
LINE
  5
E1FC
100
AcDbEntity
  8
TOP-PCB
100
AcDbLine
 10
53.86
 20
77.006475
 30
0.0
 11
51.892949
 21
77.99
 31
0.0
  0
LINE
  5
E1FD
100
AcDbEntity
  8
TOP-PCB
100
AcDbLine
 10
55.36
 20
77.933525
 30
0.0
 11
52.247051
 21
79.49
 31
0.0
  0
LINE
  5
E1FE
100
AcDbEntity
  8
TOP-PCB
100
AcDbLine
 10
51.892949
 20
77.99
 30
0.0
 11
41.015
 21
77.99
 31
0.0
  0
LINE
  5
E1FF
100
AcDbEntity
  8
TOP-PCB
100
AcDbLine
 10
52.247051
 20
79.49
 30
0.0
 11
40.265
 21
79.49
 31
0.0
  0
LINE
  5
E200
100
AcDbEntity
  8
TOP-PCB
100
AcDbLine
 10
41.015
 20
77.99
 30
0.0
 11
33.660576
 21
68.184102
 31
0.0
  0
LINE
  5
E201
100
AcDbEntity
  8
TOP-PCB
100
AcDbLine
 10
40.265
 20
79.49
 30
0.0
 11
32.379424
 21
68.975898
 31
0.0
  0
LINE
  5
E204
100
AcDbEntity
  8
TOP-PCB
100
AcDbLine
 10
33.660576
 20
68.184102
 30
0.0
 11
32.5
 21
65.862949
 31
0.0
  0
LINE
  5
E205
100
AcDbEntity
  8
TOP-PCB
100
AcDbLine
 10
32.379424
 20
68.975898
 30
0.0
 11
31.0
 21
66.217051
 31
0.0
  0
LINE
  5
E206
100
AcDbEntity
  8
TOP-PCB
100
AcDbLine
 10
32.5
 20
65.862949
 30
0.0
 11
32.5
 21
62.23
 31
0.0
  0
LINE
  5
E207
100
AcDbEntity
  8
TOP-PCB
100
AcDbLine
 10
31.0
 20
66.217051
 30
0.0
 11
31.0
 21
62.23
 31
0.0
  0
LINE
  5
E208
100
AcDbEntity
  8
TOP-PCB
100
AcDbLine
 10
32.5
 20
62.23
 30
0.0
 11
32.5
 21
62.23
 31
0.0
  0
LINE
  5
E209
100
AcDbEntity
  8
TOP-PCB
100
AcDbLine
 10
32.5
 20
62.23
 30
0.0
 11
32.5
 21
59.226475
 31
0.0
  0
LINE
  5
E20A
100
AcDbEntity
  8
TOP-PCB
100
AcDbLine
 10
31.0
 20
62.23
 30
0.0
 11
31.0
 21
62.23
 31
0.0
  0
LINE
  5
E20B
100
AcDbEntity
  8
TOP-PCB
100
AcDbLine
 10
31.0
 20
62.23
 30
0.0
 11
31.0
 21
60.153525
 31
0.0
  0
LINE
  5
E20C
100
AcDbEntity
  8
TOP-PCB
100
AcDbLine
 10
32.5
 20
59.226475
 30
0.0
 11
29.387051
 21
57.67
 31
0.0
  0
LINE
  5
E20D
100
AcDbEntity
  8
TOP-PCB
100
AcDbLine
 10
31.0
 20
60.153525
 30
0.0
 11
29.032949
 21
59.17
 31
0.0
  0
LINE
  5
E20E
100
AcDbEntity
  8
TOP-PCB
100
AcDbLine
 10
29.387051
 20
57.67
 30
0.0
 11
26.98066
 21
57.67
 31
0.0
  0
LINE
  5
E20F
100
AcDbEntity
  8
TOP-PCB
100
AcDbLine
 10
29.032949
 20
59.17
 30
0.0
 11
26.35934
 21
59.17
 31
0.0
  0
LINE
  5
E210
100
AcDbEntity
  8
TOP-PCB
100
AcDbLine
 10
26.98066
 20
57.67
 30
0.0
 11
25.93033
 21
56.61967
 31
0.0
  0
LINE
  5
E211
100
AcDbEntity
  8
TOP-PCB
100
AcDbLine
 10
26.35934
 20
59.17
 30
0.0
 11
24.86967
 21
57.68033
 31
0.0
  0
LINE
  5
E212
100
AcDbEntity
  8
TOP-PCB
100
AcDbLine
 10
25.93033
 20
56.61967
 30
0.0
 11
25.93033
 21
56.61967
 31
0.0
  0
LINE
  5
E213
100
AcDbEntity
  8
TOP-PCB
100
AcDbLine
 10
25.93033
 20
56.61967
 30
0.0
 11
24.746391
 21
55.435731
 31
0.0
  0
LINE
  5
E214
100
AcDbEntity
  8
TOP-PCB
100
AcDbLine
 10
24.86967
 20
57.68033
 30
0.0
 11
24.86967
 21
57.68033
 31
0.0
  0
LINE
  5
E215
100
AcDbEntity
  8
TOP-PCB
100
AcDbLine
 10
24.86967
 20
57.68033
 30
0.0
 11
23.513609
 21
56.324269
 31
0.0
  0
LINE
  5
E216
100
AcDbEntity
  8
TOP-PCB
100
AcDbLine
 10
24.746391
 20
55.435731
 30
0.0
 11
23.61
 21
53.162949
 31
0.0
  0
LINE
  5
E217
100
AcDbEntity
  8
TOP-PCB
100
AcDbLine
 10
23.513609
 20
56.324269
 30
0.0
 11
22.11
 21
53.517051
 31
0.0
  0
LINE
  5
E218
100
AcDbEntity
  8
TOP-PCB
100
AcDbLine
 10
23.61
 20
53.162949
 30
0.0
 11
23.61
 21
49.707051
 31
0.0
  0
LINE
  5
E219
100
AcDbEntity
  8
TOP-PCB
100
AcDbLine
 10
22.11
 20
53.517051
 30
0.0
 11
22.11
 21
49.352949
 31
0.0
  0
LINE
  5
E21A
100
AcDbEntity
  8
TOP-PCB
100
AcDbLine
 10
23.61
 20
49.707051
 30
0.0
 11
24.593525
 21
47.74
 31
0.0
  0
LINE
  5
E21B
100
AcDbEntity
  8
TOP-PCB
100
AcDbLine
 10
22.11
 20
49.352949
 30
0.0
 11
23.666475
 21
46.24
 31
0.0
  0
LINE
  5
E21C
100
AcDbEntity
  8
TOP-PCB
100
AcDbLine
 10
24.593525
 20
47.74
 30
0.0
 11
27.94
 21
47.74
 31
0.0
  0
LINE
  5
E21D
100
AcDbEntity
  8
TOP-PCB
100
AcDbLine
 10
23.666475
 20
46.24
 30
0.0
 11
27.94
 21
46.24
 31
0.0
  0
LINE
  5
E21E
100
AcDbEntity
  8
TOP-PCB
100
AcDbLine
 10
27.94
 20
47.74
 30
0.0
 11
27.94
 21
47.74
 31
0.0
  0
LINE
  5
E21F
100
AcDbEntity
  8
TOP-PCB
100
AcDbLine
 10
27.94
 20
47.74
 30
0.0
 11
39.89
 21
47.74
 31
0.0
  0
LINE
  5
E220
100
AcDbEntity
  8
TOP-PCB
100
AcDbLine
 10
27.94
 20
46.24
 30
0.0
 11
27.94
 21
46.24
 31
0.0
  0
LINE
  5
E221
100
AcDbEntity
  8
TOP-PCB
100
AcDbLine
 10
27.94
 20
46.24
 30
0.0
 11
41.39
 21
46.24
 31
0.0
  0
LINE
  5
E222
100
AcDbEntity
  8
TOP-PCB
100
AcDbLine
 10
39.89
 20
47.74
 30
0.0
 11
39.89
 21
49.269663
 31
0.0
  0
LINE
  5
E223
100
AcDbEntity
  8
TOP-PCB
100
AcDbLine
 10
41.39
 20
46.24
 30
0.0
 11
41.39
 21
49.269663
 31
0.0
  0
LINE
  5
E224
100
AcDbEntity
  8
TOP-PCB
100
AcDbLine
 10
24.65
 20
52.330337
 30
0.0
 11
24.65
 21
54.92066
 31
0.0
  0
LINE
  5
E225
100
AcDbEntity
  8
TOP-PCB
100
AcDbLine
 10
26.15
 20
52.330337
 30
0.0
 11
26.15
 21
54.29934
 31
0.0
  0
LINE
  5
E226
100
AcDbEntity
  8
TOP-PCB
100
AcDbLine
 10
24.65
 20
54.92066
 30
0.0
 11
26.264864
 21
56.535524
 31
0.0
  0
LINE
  5
E227
100
AcDbEntity
  8
TOP-PCB
100
AcDbLine
 10
26.15
 20
54.29934
 30
0.0
 11
27.075136
 21
55.224476
 31
0.0
  0
LINE
  5
E228
100
AcDbEntity
  8
TOP-PCB
100
AcDbLine
 10
26.264864
 20
56.535524
 30
0.0
 11
30.192264
 21
57.844657
 31
0.0
  0
LINE
  5
E229
100
AcDbEntity
  8
TOP-PCB
100
AcDbLine
 10
27.075136
 20
55.224476
 30
0.0
 11
30.767736
 21
56.455343
 31
0.0
  0
LINE
  5
E22A
100
AcDbEntity
  8
TOP-PCB
100
AcDbLine
 10
30.192264
 20
57.844657
 30
0.0
 11
32.575731
 21
59.036391
 31
0.0
  0
LINE
  5
E22B
100
AcDbEntity
  8
TOP-PCB
100
AcDbLine
 10
30.767736
 20
56.455343
 30
0.0
 11
33.464269
 21
57.803609
 31
0.0
  0
LINE
  5
E22C
100
AcDbEntity
  8
TOP-PCB
100
AcDbLine
 10
32.575731
 20
59.036391
 30
0.0
 11
34.81
 21
61.27066
 31
0.0
  0
LINE
  5
E22D
100
AcDbEntity
  8
TOP-PCB
100
AcDbLine
 10
33.464269
 20
57.803609
 30
0.0
 11
36.31
 21
60.64934
 31
0.0
  0
LINE
  5
E22E
100
AcDbEntity
  8
TOP-PCB
100
AcDbLine
 10
34.81
 20
61.27066
 30
0.0
 11
34.81
 21
65.08066
 31
0.0
  0
LINE
  5
E22F
100
AcDbEntity
  8
TOP-PCB
100
AcDbLine
 10
36.31
 20
60.64934
 30
0.0
 11
36.31
 21
64.45934
 31
0.0
  0
LINE
  5
E230
100
AcDbEntity
  8
TOP-PCB
100
AcDbLine
 10
34.81
 20
65.08066
 30
0.0
 11
37.655731
 21
67.926391
 31
0.0
  0
LINE
  5
E231
100
AcDbEntity
  8
TOP-PCB
100
AcDbLine
 10
36.31
 20
64.45934
 30
0.0
 11
38.544269
 21
66.693609
 31
0.0
  0
LINE
  5
E232
100
AcDbEntity
  8
TOP-PCB
100
AcDbLine
 10
37.655731
 20
67.926391
 30
0.0
 11
40.462949
 21
69.33
 31
0.0
  0
LINE
  5
E233
100
AcDbEntity
  8
TOP-PCB
100
AcDbLine
 10
38.544269
 20
66.693609
 30
0.0
 11
40.817051
 21
67.83
 31
0.0
  0
LINE
  5
E234
100
AcDbEntity
  8
TOP-PCB
100
AcDbLine
 10
40.462949
 20
69.33
 30
0.0
 11
41.649663
 21
69.33
 31
0.0
  0
LINE
  5
E235
100
AcDbEntity
  8
TOP-PCB
100
AcDbLine
 10
40.817051
 20
67.83
 30
0.0
 11
41.649663
 21
67.83
 31
0.0
  0
LINE
  5
E236
100
AcDbEntity
  8
TOP-PCB
100
AcDbLine
 10
27.19
 20
52.330337
 30
0.0
 11
27.19
 21
53.803525
 31
0.0
  0
LINE
  5
E237
100
AcDbEntity
  8
TOP-PCB
100
AcDbLine
 10
28.69
 20
52.330337
 30
0.0
 11
28.69
 21
52.876475
 31
0.0
  0
LINE
  5
E238
100
AcDbEntity
  8
TOP-PCB
100
AcDbLine
 10
27.19
 20
53.803525
 30
0.0
 11
30.14459
 21
55.28082
 31
0.0
  0
LINE
  5
E239
100
AcDbEntity
  8
TOP-PCB
100
AcDbLine
 10
28.69
 20
52.876475
 30
0.0
 11
30.81541
 21
53.93918
 31
0.0
  0
LINE
  5
E23A
100
AcDbEntity
  8
TOP-PCB
100
AcDbLine
 10
30.14459
 20
55.28082
 30
0.0
 11
30.14459
 21
55.28082
 31
0.0
  0
LINE
  5
E23B
100
AcDbEntity
  8
TOP-PCB
100
AcDbLine
 10
30.14459
 20
55.28082
 30
0.0
 11
35.22459
 21
57.82082
 31
0.0
  0
LINE
  5
E23C
100
AcDbEntity
  8
TOP-PCB
100
AcDbLine
 10
30.81541
 20
53.93918
 30
0.0
 11
30.81541
 21
53.93918
 31
0.0
  0
LINE
  5
E23D
100
AcDbEntity
  8
TOP-PCB
100
AcDbLine
 10
30.81541
 20
53.93918
 30
0.0
 11
35.89541
 21
56.47918
 31
0.0
  0
LINE
  5
E23E
100
AcDbEntity
  8
TOP-PCB
100
AcDbLine
 10
35.22459
 20
57.82082
 30
0.0
 11
35.22459
 21
57.82082
 31
0.0
  0
LINE
  5
E23F
100
AcDbEntity
  8
TOP-PCB
100
AcDbLine
 10
35.22459
 20
57.82082
 30
0.0
 11
37.456056
 21
58.936554
 31
0.0
  0
LINE
  5
E240
100
AcDbEntity
  8
TOP-PCB
100
AcDbLine
 10
35.89541
 20
56.47918
 30
0.0
 11
35.89541
 21
56.47918
 31
0.0
  0
LINE
  5
E241
100
AcDbEntity
  8
TOP-PCB
100
AcDbLine
 10
35.89541
 20
56.47918
 30
0.0
 11
38.743944
 21
57.903446
 31
0.0
  0
LINE
  5
E242
100
AcDbEntity
  8
TOP-PCB
100
AcDbLine
 10
37.456056
 20
58.936554
 30
0.0
 11
38.784418
 21
64.25
 31
0.0
  0
LINE
  5
E243
100
AcDbEntity
  8
TOP-PCB
100
AcDbLine
 10
38.743944
 20
57.903446
 30
0.0
 11
39.955582
 21
62.75
 31
0.0
  0
LINE
  5
E244
100
AcDbEntity
  8
TOP-PCB
100
AcDbLine
 10
38.784418
 20
64.25
 30
0.0
 11
41.649663
 21
64.25
 31
0.0
  0
LINE
  5
E245
100
AcDbEntity
  8
TOP-PCB
100
AcDbLine
 10
39.955582
 20
62.75
 30
0.0
 11
41.649663
 21
62.75
 31
0.0
  0
LINE
  5
E246
100
AcDbEntity
  8
TOP-PCB
100
AcDbLine
 10
44.478682
 20
60.039687
 30
0.0
 11
44.913525
 21
59.17
 31
0.0
  0
LINE
  5
E247
100
AcDbEntity
  8
TOP-PCB
100
AcDbLine
 10
42.864725
 20
59.9135
 30
0.0
 11
43.986475
 21
57.67
 31
0.0
  0
LINE
  5
E248
100
AcDbEntity
  8
TOP-PCB
100
AcDbLine
 10
44.913525
 20
59.17
 30
0.0
 11
64.509663
 21
59.17
 31
0.0
  0
LINE
  5
E249
100
AcDbEntity
  8
TOP-PCB
100
AcDbLine
 10
43.986475
 20
57.67
 30
0.0
 11
64.509663
 21
57.67
 31
0.0
  0
LINE
  5
E24A
100
AcDbEntity
  8
TOP-PCB
100
AcDbLine
 10
61.969663
 20
24.65
 30
0.0
 11
60.782949
 21
24.65
 31
0.0
  0
LINE
  5
E24B
100
AcDbEntity
  8
TOP-PCB
100
AcDbLine
 10
61.969663
 20
26.15
 30
0.0
 11
61.137051
 21
26.15
 31
0.0
  0
LINE
  5
E24C
100
AcDbEntity
  8
TOP-PCB
100
AcDbLine
 10
60.782949
 20
24.65
 30
0.0
 11
57.67
 21
26.206475
 31
0.0
  0
LINE
  5
E24D
100
AcDbEntity
  8
TOP-PCB
100
AcDbLine
 10
61.137051
 20
26.15
 30
0.0
 11
59.17
 21
27.133525
 31
0.0
  0
LINE
  5
E24E
100
AcDbEntity
  8
TOP-PCB
100
AcDbLine
 10
57.67
 20
26.206475
 30
0.0
 11
57.67
 21
30.79066
 31
0.0
  0
LINE
  5
E24F
100
AcDbEntity
  8
TOP-PCB
100
AcDbLine
 10
59.17
 20
27.133525
 30
0.0
 11
59.17
 21
30.16934
 31
0.0
  0
LINE
  5
E250
100
AcDbEntity
  8
TOP-PCB
100
AcDbLine
 10
57.67
 20
30.79066
 30
0.0
 11
60.64934
 21
33.77
 31
0.0
  0
LINE
  5
E251
100
AcDbEntity
  8
TOP-PCB
100
AcDbLine
 10
59.17
 20
30.16934
 30
0.0
 11
61.27066
 21
32.27
 31
0.0
  0
LINE
  5
E252
100
AcDbEntity
  8
TOP-PCB
100
AcDbLine
 10
60.64934
 20
33.77
 30
0.0
 11
67.58
 21
33.77
 31
0.0
  0
LINE
  5
E253
100
AcDbEntity
  8
TOP-PCB
100
AcDbLine
 10
61.27066
 20
32.27
 30
0.0
 11
67.58
 21
32.27
 31
0.0
  0
LINE
  5
E254
100
AcDbEntity
  8
TOP-PCB
100
AcDbLine
 10
37.35
 20
52.330337
 30
0.0
 11
37.35
 21
53.803525
 31
0.0
  0
LINE
  5
E255
100
AcDbEntity
  8
TOP-PCB
100
AcDbLine
 10
38.85
 20
52.330337
 30
0.0
 11
38.85
 21
52.876475
 31
0.0
  0
LINE
  5
E256
100
AcDbEntity
  8
TOP-PCB
100
AcDbLine
 10
37.35
 20
53.803525
 30
0.0
 11
40.462949
 21
55.36
 31
0.0
  0
LINE
  5
E257
100
AcDbEntity
  8
TOP-PCB
100
AcDbLine
 10
38.85
 20
52.876475
 30
0.0
 11
40.817051
 21
53.86
 31
0.0
  0
LINE
  5
E258
100
AcDbEntity
  8
TOP-PCB
100
AcDbLine
 10
40.462949
 20
55.36
 30
0.0
 11
63.727082
 21
55.36
 31
0.0
  0
LINE
  5
E259
100
AcDbEntity
  8
TOP-PCB
100
AcDbLine
 10
40.817051
 20
53.86
 30
0.0
 11
63.272918
 21
53.86
 31
0.0
  0
LINE
  5
E25A
100
AcDbEntity
  8
TOP-PCB
100
AcDbLine
 10
63.727082
 20
55.36
 30
0.0
 11
68.06
 21
52.471388
 31
0.0
  0
LINE
  5
E25B
100
AcDbEntity
  8
TOP-PCB
100
AcDbLine
 10
63.272918
 20
53.86
 30
0.0
 11
66.56
 21
51.668612
 31
0.0
  0
LINE
  5
E25C
100
AcDbEntity
  8
TOP-PCB
100
AcDbLine
 10
68.06
 20
52.471388
 30
0.0
 11
68.06
 21
39.771388
 31
0.0
  0
LINE
  5
E25D
100
AcDbEntity
  8
TOP-PCB
100
AcDbLine
 10
66.56
 20
51.668612
 30
0.0
 11
66.56
 21
38.968612
 31
0.0
  0
LINE
  5
E25E
100
AcDbEntity
  8
TOP-PCB
100
AcDbLine
 10
68.06
 20
39.771388
 30
0.0
 11
71.87
 21
37.231388
 31
0.0
  0
LINE
  5
E25F
100
AcDbEntity
  8
TOP-PCB
100
AcDbLine
 10
66.56
 20
38.968612
 30
0.0
 11
70.37
 21
36.428612
 31
0.0
  0
LINE
  5
E260
100
AcDbEntity
  8
TOP-PCB
100
AcDbLine
 10
71.87
 20
37.231388
 30
0.0
 11
71.87
 21
21.362918
 31
0.0
  0
LINE
  5
E261
100
AcDbEntity
  8
TOP-PCB
100
AcDbLine
 10
70.37
 20
36.428612
 30
0.0
 11
70.37
 21
21.817082
 31
0.0
  0
LINE
  5
E262
100
AcDbEntity
  8
TOP-PCB
100
AcDbLine
 10
71.87
 20
21.362918
 30
0.0
 11
70.028969
 21
18.601371
 31
0.0
  0
LINE
  5
E263
100
AcDbEntity
  8
TOP-PCB
100
AcDbLine
 10
70.37
 20
21.817082
 30
0.0
 11
68.376279
 21
18.8265
 31
0.0
  0
LINE
  5
E274
100
AcDbEntity
  8
TOP-PCB
100
AcDbLine
 10
71.87
 20
58.42
 30
0.0
 11
71.87
 21
58.42
 31
0.0
  0
LINE
  5
E280
100
AcDbEntity
  8
TOP-PCB
100
AcDbLine
 10
57.065854
 20
9.285285
 30
0.0
 11
59.811708
 21
8.37
 31
0.0
  0
LINE
  5
E281
100
AcDbEntity
  8
TOP-PCB
100
AcDbLine
 10
56.591512
 20
7.86226
 30
0.0
 11
59.568292
 21
6.87
 31
0.0
  0
LINE
  5
E282
100
AcDbEntity
  8
TOP-PCB
100
AcDbLine
 10
59.811708
 20
8.37
 30
0.0
 11
71.583525
 21
8.37
 31
0.0
  0
LINE
  5
E283
100
AcDbEntity
  8
TOP-PCB
100
AcDbLine
 10
59.568292
 20
6.87
 30
0.0
 11
70.656475
 21
6.87
 31
0.0
  0
LINE
  5
E284
100
AcDbEntity
  8
TOP-PCB
100
AcDbLine
 10
71.583525
 20
8.37
 30
0.0
 11
72.613607
 21
6.309837
 31
0.0
  0
LINE
  5
E285
100
AcDbEntity
  8
TOP-PCB
100
AcDbLine
 10
70.656475
 20
6.87
 30
0.0
 11
71.271966
 21
5.639017
 31
0.0
  0
LINE
  5
E28A
100
AcDbEntity
  8
TOP-PCB
100
AcDbLine
 10
34.0665
 20
4.56
 30
0.0
 11
41.59934
 21
4.56
 31
0.0
  0
LINE
  5
E28B
100
AcDbEntity
  8
TOP-PCB
100
AcDbLine
 10
34.0665
 20
3.06
 30
0.0
 11
42.22066
 21
3.06
 31
0.0
  0
LINE
  5
E28C
100
AcDbEntity
  8
TOP-PCB
100
AcDbLine
 10
41.59934
 20
4.56
 30
0.0
 11
45.752563
 21
8.713223
 31
0.0
  0
LINE
  5
E28D
100
AcDbEntity
  8
TOP-PCB
100
AcDbLine
 10
42.22066
 20
3.06
 30
0.0
 11
46.813223
 21
7.652563
 31
0.0
  0
LINE
  5
E28E
100
AcDbEntity
  8
TOP-PCB
100
AcDbLine
 10
32.27
 20
5.340337
 30
0.0
 11
32.27
 21
5.809431
 31
0.0
  0
LINE
  5
E28F
100
AcDbEntity
  8
TOP-PCB
100
AcDbLine
 10
33.77
 20
5.340337
 30
0.0
 11
33.77
 21
6.890569
 31
0.0
  0
LINE
  5
E290
100
AcDbEntity
  8
TOP-PCB
100
AcDbLine
 10
32.27
 20
5.809431
 30
0.0
 11
28.46
 21
7.079431
 31
0.0
  0
LINE
  5
E291
100
AcDbEntity
  8
TOP-PCB
100
AcDbLine
 10
33.77
 20
6.890569
 30
0.0
 11
29.96
 21
8.160569
 31
0.0
  0
LINE
  5
E292
100
AcDbEntity
  8
TOP-PCB
100
AcDbLine
 10
28.46
 20
7.079431
 30
0.0
 11
28.46
 21
9.16
 31
0.0
  0
LINE
  5
E293
100
AcDbEntity
  8
TOP-PCB
100
AcDbLine
 10
29.96
 20
8.160569
 30
0.0
 11
29.96
 21
9.16
 31
0.0
  0
LINE
  5
E29C
100
AcDbEntity
  8
TOP-PCB
100
AcDbLine
 10
33.54
 20
11.16
 30
0.0
 11
33.54
 21
37.78934
 31
0.0
  0
LINE
  5
E29D
100
AcDbEntity
  8
TOP-PCB
100
AcDbLine
 10
35.04
 20
11.16
 30
0.0
 11
35.04
 21
38.41066
 31
0.0
  0
LINE
  5
E29E
100
AcDbEntity
  8
TOP-PCB
100
AcDbLine
 10
33.54
 20
37.78934
 30
0.0
 11
31.43934
 21
39.89
 31
0.0
  0
LINE
  5
E29F
100
AcDbEntity
  8
TOP-PCB
100
AcDbLine
 10
35.04
 20
38.41066
 30
0.0
 11
32.06066
 21
41.39
 31
0.0
  0
LINE
  5
E2A0
100
AcDbEntity
  8
TOP-PCB
100
AcDbLine
 10
31.43934
 20
39.89
 30
0.0
 11
26.930337
 21
39.89
 31
0.0
  0
LINE
  5
E2A1
100
AcDbEntity
  8
TOP-PCB
100
AcDbLine
 10
32.06066
 20
41.39
 30
0.0
 11
26.930337
 21
41.39
 31
0.0
  0
LINE
  5
E2A2
100
AcDbEntity
  8
TOP-PCB
100
AcDbLine
 10
23.869663
 20
39.89
 30
0.0
 11
21.27934
 21
39.89
 31
0.0
  0
LINE
  5
E2A3
100
AcDbEntity
  8
TOP-PCB
100
AcDbLine
 10
23.869663
 20
41.39
 30
0.0
 11
21.90066
 21
41.39
 31
0.0
  0
LINE
  5
E2A4
100
AcDbEntity
  8
TOP-PCB
100
AcDbLine
 10
21.27934
 20
39.89
 30
0.0
 11
16.19934
 21
44.97
 31
0.0
  0
LINE
  5
E2A5
100
AcDbEntity
  8
TOP-PCB
100
AcDbLine
 10
21.90066
 20
41.39
 30
0.0
 11
16.82066
 21
46.47
 31
0.0
  0
LINE
  5
E2A6
100
AcDbEntity
  8
TOP-PCB
100
AcDbLine
 10
16.19934
 20
44.97
 30
0.0
 11
12.43
 21
44.97
 31
0.0
  0
LINE
  5
E2A7
100
AcDbEntity
  8
TOP-PCB
100
AcDbLine
 10
16.82066
 20
46.47
 30
0.0
 11
12.43
 21
46.47
 31
0.0
  0
LINE
  5
E2A8
100
AcDbEntity
  8
TOP-PCB
100
AcDbLine
 10
23.869663
 20
37.35
 30
0.0
 11
21.90066
 21
37.35
 31
0.0
  0
LINE
  5
E2A9
100
AcDbEntity
  8
TOP-PCB
100
AcDbLine
 10
23.869663
 20
38.85
 30
0.0
 11
21.27934
 21
38.85
 31
0.0
  0
LINE
  5
E2AA
100
AcDbEntity
  8
TOP-PCB
100
AcDbLine
 10
21.90066
 20
37.35
 30
0.0
 11
19.8
 21
35.24934
 31
0.0
  0
LINE
  5
E2AB
100
AcDbEntity
  8
TOP-PCB
100
AcDbLine
 10
21.27934
 20
38.85
 30
0.0
 11
18.3
 21
35.87066
 31
0.0
  0
LINE
  5
E2AC
100
AcDbEntity
  8
TOP-PCB
100
AcDbLine
 10
19.8
 20
35.24934
 30
0.0
 11
19.8
 21
30.23
 31
0.0
  0
LINE
  5
E2AD
100
AcDbEntity
  8
TOP-PCB
100
AcDbLine
 10
18.3
 20
35.87066
 30
0.0
 11
18.3
 21
30.73
 31
0.0
  0
LINE
  5
E2AE
100
AcDbEntity
  8
TOP-PCB
100
AcDbLine
 10
19.8
 20
30.23
 30
0.0
 11
16.44
 21
25.75
 31
0.0
  0
LINE
  5
E2AF
100
AcDbEntity
  8
TOP-PCB
100
AcDbLine
 10
18.3
 20
30.73
 30
0.0
 11
15.24
 21
26.65
 31
0.0
  0
LINE
  5
E2B0
100
AcDbEntity
  8
TOP-PCB
100
AcDbLine
 10
6.87
 20
26.4
 30
0.0
 11
6.87
 21
30.078612
 31
0.0
  0
LINE
  5
E2B1
100
AcDbEntity
  8
TOP-PCB
100
AcDbLine
 10
8.37
 20
26.4
 30
0.0
 11
8.37
 21
30.881388
 31
0.0
  0
LINE
  5
E2B2
100
AcDbEntity
  8
TOP-PCB
100
AcDbLine
 10
6.87
 20
30.078612
 30
0.0
 11
3.06
 21
32.618612
 31
0.0
  0
LINE
  5
E2B3
100
AcDbEntity
  8
TOP-PCB
100
AcDbLine
 10
8.37
 20
30.881388
 30
0.0
 11
4.56
 21
33.421388
 31
0.0
  0
LINE
  5
E2B4
100
AcDbEntity
  8
TOP-PCB
100
AcDbLine
 10
3.06
 20
32.618612
 30
0.0
 11
3.06
 21
39.514437
 31
0.0
  0
LINE
  5
E2B5
100
AcDbEntity
  8
TOP-PCB
100
AcDbLine
 10
4.56
 20
33.421388
 30
0.0
 11
4.56
 21
39.225563
 31
0.0
  0
LINE
  5
E2B6
100
AcDbEntity
  8
TOP-PCB
100
AcDbLine
 10
3.06
 20
39.514437
 30
0.0
 11
5.282252
 21
45.070066
 31
0.0
  0
LINE
  5
E2B7
100
AcDbEntity
  8
TOP-PCB
100
AcDbLine
 10
4.56
 20
39.225563
 30
0.0
 11
6.674967
 21
44.51298
 31
0.0
  0
LINE
  5
E2B8
100
AcDbEntity
  8
TOP-PCB
100
AcDbLine
 10
1.530337
 20
28.69
 30
0.0
 11
5.83
 21
28.69
 31
0.0
  0
LINE
  5
E2B9
100
AcDbEntity
  8
TOP-PCB
100
AcDbLine
 10
1.530337
 20
27.19
 30
0.0
 11
4.33
 21
27.19
 31
0.0
  0
LINE
  5
E2BA
100
AcDbEntity
  8
TOP-PCB
100
AcDbLine
 10
5.83
 20
28.69
 30
0.0
 11
5.83
 21
25.577051
 31
0.0
  0
LINE
  5
E2BB
100
AcDbEntity
  8
TOP-PCB
100
AcDbLine
 10
4.33
 20
27.19
 30
0.0
 11
4.33
 21
25.222949
 31
0.0
  0
LINE
  5
E2BE
100
AcDbEntity
  8
TOP-PCB
100
AcDbLine
 10
5.83
 20
25.577051
 30
0.0
 11
6.813525
 21
23.61
 31
0.0
  0
LINE
  5
E2BF
100
AcDbEntity
  8
TOP-PCB
100
AcDbLine
 10
4.33
 20
25.222949
 30
0.0
 11
5.886475
 21
22.11
 31
0.0
  0
LINE
  5
E2C0
100
AcDbEntity
  8
TOP-PCB
100
AcDbLine
 10
6.813525
 20
23.61
 30
0.0
 11
17.405
 21
23.61
 31
0.0
  0
LINE
  5
E2C1
100
AcDbEntity
  8
TOP-PCB
100
AcDbLine
 10
5.886475
 20
22.11
 30
0.0
 11
18.155
 21
22.11
 31
0.0
  0
LINE
  5
E2C2
100
AcDbEntity
  8
TOP-PCB
100
AcDbLine
 10
17.405
 20
23.61
 30
0.0
 11
21.215
 21
28.69
 31
0.0
  0
LINE
  5
E2C3
100
AcDbEntity
  8
TOP-PCB
100
AcDbLine
 10
18.155
 20
22.11
 30
0.0
 11
21.965
 21
27.19
 31
0.0
  0
LINE
  5
E2C4
100
AcDbEntity
  8
TOP-PCB
100
AcDbLine
 10
21.215
 20
28.69
 30
0.0
 11
23.869663
 21
28.69
 31
0.0
  0
LINE
  5
E2C5
100
AcDbEntity
  8
TOP-PCB
100
AcDbLine
 10
21.965
 20
27.19
 30
0.0
 11
23.869663
 21
27.19
 31
0.0
  0
LINE
  5
E2C6
100
AcDbEntity
  8
TOP-PCB
100
AcDbLine
 10
1.530337
 20
26.15
 30
0.0
 11
3.003525
 21
26.15
 31
0.0
  0
LINE
  5
E2C7
100
AcDbEntity
  8
TOP-PCB
100
AcDbLine
 10
1.530337
 20
24.65
 30
0.0
 11
2.076475
 21
24.65
 31
0.0
  0
LINE
  5
E2C8
100
AcDbEntity
  8
TOP-PCB
100
AcDbLine
 10
3.003525
 20
26.15
 30
0.0
 11
4.452356
 21
23.25234
 31
0.0
  0
LINE
  5
E2C9
100
AcDbEntity
  8
TOP-PCB
100
AcDbLine
 10
2.076475
 20
24.65
 30
0.0
 11
3.167644
 21
22.46766
 31
0.0
  0
LINE
  5
E2CA
100
AcDbEntity
  8
TOP-PCB
100
AcDbLine
 10
4.452356
 20
23.25234
 30
0.0
 11
5.575826
 21
21.721055
 31
0.0
  0
LINE
  5
E2CB
100
AcDbEntity
  8
TOP-PCB
100
AcDbLine
 10
3.167644
 20
22.46766
 30
0.0
 11
4.81593
 21
20.221055
 31
0.0
  0
LINE
  5
E2CC
100
AcDbEntity
  8
TOP-PCB
100
AcDbLine
 10
5.575826
 20
21.721055
 30
0.0
 11
17.99693
 21
21.721055
 31
0.0
  0
LINE
  5
E2CD
100
AcDbEntity
  8
TOP-PCB
100
AcDbLine
 10
4.81593
 20
20.221055
 30
0.0
 11
18.543018
 21
20.221055
 31
0.0
  0
LINE
  5
E2CE
100
AcDbEntity
  8
TOP-PCB
100
AcDbLine
 10
17.99693
 20
21.721055
 30
0.0
 11
20.398061
 21
23.736481
 31
0.0
  0
LINE
  5
E2CF
100
AcDbEntity
  8
TOP-PCB
100
AcDbLine
 10
18.543018
 20
20.221055
 30
0.0
 11
21.45656
 21
22.666581
 31
0.0
  0
LINE
  5
E2D0
100
AcDbEntity
  8
TOP-PCB
100
AcDbLine
 10
20.398061
 20
23.736481
 30
0.0
 11
22.495811
 21
26.182007
 31
0.0
  0
LINE
  5
E2D1
100
AcDbEntity
  8
TOP-PCB
100
AcDbLine
 10
21.45656
 20
22.666581
 30
0.0
 11
23.185374
 21
24.682007
 31
0.0
  0
LINE
  5
E2D2
100
AcDbEntity
  8
TOP-PCB
100
AcDbLine
 10
22.495811
 20
26.182007
 30
0.0
 11
23.904066
 21
26.182007
 31
0.0
  0
LINE
  5
E2D3
100
AcDbEntity
  8
TOP-PCB
100
AcDbLine
 10
23.185374
 20
24.682007
 30
0.0
 11
23.838154
 21
24.682007
 31
0.0
  0
LINE
  5
E2D4
100
AcDbEntity
  8
TOP-PCB
100
AcDbLine
 10
0.75
 20
21.8135
 30
0.0
 11
0.75
 21
16.82066
 31
0.0
  0
LINE
  5
E2D5
100
AcDbEntity
  8
TOP-PCB
100
AcDbLine
 10
-0.75
 20
21.8135
 30
0.0
 11
-0.75
 21
16.19934
 31
0.0
  0
LINE
  5
E2D6
100
AcDbEntity
  8
TOP-PCB
100
AcDbLine
 10
0.75
 20
16.82066
 30
0.0
 11
1.58066
 21
15.99
 31
0.0
  0
LINE
  5
E2D7
100
AcDbEntity
  8
TOP-PCB
100
AcDbLine
 10
-0.75
 20
16.19934
 30
0.0
 11
0.95934
 21
14.49
 31
0.0
  0
LINE
  5
E2D8
100
AcDbEntity
  8
TOP-PCB
100
AcDbLine
 10
1.58066
 20
15.99
 30
0.0
 11
9.117082
 21
15.99
 31
0.0
  0
LINE
  5
E2D9
100
AcDbEntity
  8
TOP-PCB
100
AcDbLine
 10
0.95934
 20
14.49
 30
0.0
 11
8.662918
 21
14.49
 31
0.0
  0
LINE
  5
E2DA
100
AcDbEntity
  8
TOP-PCB
100
AcDbLine
 10
9.117082
 20
15.99
 30
0.0
 11
12.927082
 21
13.45
 31
0.0
  0
LINE
  5
E2DB
100
AcDbEntity
  8
TOP-PCB
100
AcDbLine
 10
8.662918
 20
14.49
 30
0.0
 11
12.472918
 21
11.95
 31
0.0
  0
LINE
  5
E2DC
100
AcDbEntity
  8
TOP-PCB
100
AcDbLine
 10
12.927082
 20
13.45
 30
0.0
 11
17.46934
 21
13.45
 31
0.0
  0
LINE
  5
E2DD
100
AcDbEntity
  8
TOP-PCB
100
AcDbLine
 10
12.472918
 20
11.95
 30
0.0
 11
18.09066
 21
11.95
 31
0.0
  0
LINE
  5
E2DE
100
AcDbEntity
  8
TOP-PCB
100
AcDbLine
 10
17.46934
 20
13.45
 30
0.0
 11
19.680816
 21
15.661476
 31
0.0
  0
LINE
  5
E2DF
100
AcDbEntity
  8
TOP-PCB
100
AcDbLine
 10
18.09066
 20
11.95
 30
0.0
 11
20.959184
 21
14.818524
 31
0.0
  0
LINE
  5
E2E0
100
AcDbEntity
  8
TOP-PCB
100
AcDbLine
 10
19.680816
 20
15.661476
 30
0.0
 11
22.220816
 21
22.011476
 31
0.0
  0
LINE
  5
E2E1
100
AcDbEntity
  8
TOP-PCB
100
AcDbLine
 10
20.959184
 20
14.818524
 30
0.0
 11
23.499184
 21
21.168524
 31
0.0
  0
LINE
  5
E2E2
100
AcDbEntity
  8
TOP-PCB
100
AcDbLine
 10
22.220816
 20
22.011476
 30
0.0
 11
23.81934
 21
23.61
 31
0.0
  0
LINE
  5
E2E3
100
AcDbEntity
  8
TOP-PCB
100
AcDbLine
 10
23.499184
 20
21.168524
 30
0.0
 11
24.21669
 21
21.886029
 31
0.0
  0
LINE
  5
E2E4
100
AcDbEntity
  8
TOP-PCB
100
AcDbLine
 10
23.81934
 20
23.61
 30
0.0
 11
23.869663
 21
23.61
 31
0.0
  0
LINE
  5
E2E6
100
AcDbEntity
  8
TOP-PCB
100
AcDbLine
 10
1.530337
 20
55.36
 30
0.0
 11
4.037082
 21
55.36
 31
0.0
  0
LINE
  5
E2E7
100
AcDbEntity
  8
TOP-PCB
100
AcDbLine
 10
1.530337
 20
53.86
 30
0.0
 11
3.582918
 21
53.86
 31
0.0
  0
LINE
  5
E2E8
100
AcDbEntity
  8
TOP-PCB
100
AcDbLine
 10
4.037082
 20
55.36
 30
0.0
 11
7.847082
 21
52.82
 31
0.0
  0
LINE
  5
E2E9
100
AcDbEntity
  8
TOP-PCB
100
AcDbLine
 10
3.582918
 20
53.86
 30
0.0
 11
7.392918
 21
51.32
 31
0.0
  0
LINE
  5
E2EA
100
AcDbEntity
  8
TOP-PCB
100
AcDbLine
 10
7.847082
 20
52.82
 30
0.0
 11
16.885
 21
52.82
 31
0.0
  0
LINE
  5
E2EB
100
AcDbEntity
  8
TOP-PCB
100
AcDbLine
 10
7.392918
 20
51.32
 30
0.0
 11
16.135
 21
51.32
 31
0.0
  0
LINE
  5
E2EC
100
AcDbEntity
  8
TOP-PCB
100
AcDbLine
 10
16.885
 20
52.82
 30
0.0
 11
20.888019
 21
47.482641
 31
0.0
  0
LINE
  5
E2ED
100
AcDbEntity
  8
TOP-PCB
100
AcDbLine
 10
16.135
 20
51.32
 30
0.0
 11
19.751981
 21
46.497359
 31
0.0
  0
LINE
  5
E2EE
100
AcDbEntity
  8
TOP-PCB
100
AcDbLine
 10
20.888019
 20
47.482641
 30
0.0
 11
23.17066
 21
45.2
 31
0.0
  0
LINE
  5
E2EF
100
AcDbEntity
  8
TOP-PCB
100
AcDbLine
 10
19.751981
 20
46.497359
 30
0.0
 11
22.54934
 21
43.7
 31
0.0
  0
LINE
  5
E2F0
100
AcDbEntity
  8
TOP-PCB
100
AcDbLine
 10
23.17066
 20
45.2
 30
0.0
 11
47.51
 21
45.2
 31
0.0
  0
LINE
  5
E2F1
100
AcDbEntity
  8
TOP-PCB
100
AcDbLine
 10
22.54934
 20
43.7
 30
0.0
 11
49.01
 21
43.7
 31
0.0
  0
LINE
  5
E2F2
100
AcDbEntity
  8
TOP-PCB
100
AcDbLine
 10
47.51
 20
45.2
 30
0.0
 11
47.51
 21
49.269663
 31
0.0
  0
LINE
  5
E2F3
100
AcDbEntity
  8
TOP-PCB
100
AcDbLine
 10
49.01
 20
43.7
 30
0.0
 11
49.01
 21
49.269663
 31
0.0
  0
LINE
  5
E2F4
100
AcDbEntity
  8
TOP-PCB
100
AcDbLine
 10
67.570337
 20
71.87
 30
0.0
 11
71.87
 21
71.87
 31
0.0
  0
LINE
  5
E2F5
100
AcDbEntity
  8
TOP-PCB
100
AcDbLine
 10
67.570337
 20
70.37
 30
0.0
 11
70.37
 21
70.37
 31
0.0
  0
LINE
  5
E2F6
100
AcDbEntity
  8
TOP-PCB
100
AcDbLine
 10
71.87
 20
71.87
 30
0.0
 11
71.87
 21
57.46066
 31
0.0
  0
LINE
  5
E2F7
100
AcDbEntity
  8
TOP-PCB
100
AcDbLine
 10
70.37
 20
70.37
 30
0.0
 11
70.37
 21
56.83934
 31
0.0
  0
LINE
  5
E2F8
100
AcDbEntity
  8
TOP-PCB
100
AcDbLine
 10
71.87
 20
57.46066
 30
0.0
 11
72.70066
 21
56.63
 31
0.0
  0
LINE
  5
E2F9
100
AcDbEntity
  8
TOP-PCB
100
AcDbLine
 10
70.37
 20
56.83934
 30
0.0
 11
72.07934
 21
55.13
 31
0.0
  0
LINE
  5
E2FA
100
AcDbEntity
  8
TOP-PCB
100
AcDbLine
 10
72.70066
 20
56.63
 30
0.0
 11
77.78066
 21
56.63
 31
0.0
  0
LINE
  5
E2FB
100
AcDbEntity
  8
TOP-PCB
100
AcDbLine
 10
72.07934
 20
55.13
 30
0.0
 11
77.15934
 21
55.13
 31
0.0
  0
LINE
  5
E2FC
100
AcDbEntity
  8
TOP-PCB
100
AcDbLine
 10
77.78066
 20
56.63
 30
0.0
 11
79.49
 21
54.92066
 31
0.0
  0
LINE
  5
E2FD
100
AcDbEntity
  8
TOP-PCB
100
AcDbLine
 10
77.15934
 20
55.13
 30
0.0
 11
77.99
 21
54.29934
 31
0.0
  0
LINE
  5
E2FE
100
AcDbEntity
  8
TOP-PCB
100
AcDbLine
 10
79.49
 20
54.92066
 30
0.0
 11
79.49
 21
49.841139
 31
0.0
  0
LINE
  5
E2FF
100
AcDbEntity
  8
TOP-PCB
100
AcDbLine
 10
77.99
 20
54.29934
 30
0.0
 11
77.99
 21
49.841139
 31
0.0
  0
LINE
  5
E300
100
AcDbEntity
  8
TOP-PCB
100
AcDbLine
 10
66.79
 20
57.3735
 30
0.0
 11
66.79
 21
56.19066
 31
0.0
  0
LINE
  5
E301
100
AcDbEntity
  8
TOP-PCB
100
AcDbLine
 10
65.29
 20
57.3735
 30
0.0
 11
65.29
 21
55.56934
 31
0.0
  0
LINE
  5
E302
100
AcDbEntity
  8
TOP-PCB
100
AcDbLine
 10
66.79
 20
56.19066
 30
0.0
 11
69.11033
 21
53.87033
 31
0.0
  0
LINE
  5
E303
100
AcDbEntity
  8
TOP-PCB
100
AcDbLine
 10
65.29
 20
55.56934
 30
0.0
 11
68.04967
 21
52.80967
 31
0.0
  0
LINE
  5
E304
100
AcDbEntity
  8
TOP-PCB
100
AcDbLine
 10
69.11033
 20
53.87033
 30
0.0
 11
69.11033
 21
53.87033
 31
0.0
  0
LINE
  5
E305
100
AcDbEntity
  8
TOP-PCB
100
AcDbLine
 10
69.11033
 20
53.87033
 30
0.0
 11
70.6
 21
52.38066
 31
0.0
  0
LINE
  5
E306
100
AcDbEntity
  8
TOP-PCB
100
AcDbLine
 10
68.04967
 20
52.80967
 30
0.0
 11
68.04967
 21
52.80967
 31
0.0
  0
LINE
  5
E307
100
AcDbEntity
  8
TOP-PCB
100
AcDbLine
 10
68.04967
 20
52.80967
 30
0.0
 11
69.1
 21
51.75934
 31
0.0
  0
LINE
  5
E308
100
AcDbEntity
  8
TOP-PCB
100
AcDbLine
 10
70.6
 20
52.38066
 30
0.0
 11
70.6
 21
49.53
 31
0.0
  0
LINE
  5
E309
100
AcDbEntity
  8
TOP-PCB
100
AcDbLine
 10
69.1
 20
51.75934
 30
0.0
 11
69.1
 21
49.53
 31
0.0
  0
LINE
  5
E30A
100
AcDbEntity
  8
TOP-PCB
100
AcDbLine
 10
70.6
 20
49.53
 30
0.0
 11
70.6
 21
49.53
 31
0.0
  0
LINE
  5
E30B
100
AcDbEntity
  8
TOP-PCB
100
AcDbLine
 10
70.6
 20
49.53
 30
0.0
 11
70.6
 21
41.041388
 31
0.0
  0
LINE
  5
E30C
100
AcDbEntity
  8
TOP-PCB
100
AcDbLine
 10
69.1
 20
49.53
 30
0.0
 11
69.1
 21
49.53
 31
0.0
  0
LINE
  5
E30D
100
AcDbEntity
  8
TOP-PCB
100
AcDbLine
 10
69.1
 20
49.53
 30
0.0
 11
69.1
 21
40.238612
 31
0.0
  0
LINE
  5
E30E
100
AcDbEntity
  8
TOP-PCB
100
AcDbLine
 10
70.6
 20
41.041388
 30
0.0
 11
74.41
 21
38.501388
 31
0.0
  0
LINE
  5
E30F
100
AcDbEntity
  8
TOP-PCB
100
AcDbLine
 10
69.1
 20
40.238612
 30
0.0
 11
72.91
 21
37.698612
 31
0.0
  0
LINE
  5
E310
100
AcDbEntity
  8
TOP-PCB
100
AcDbLine
 10
74.41
 20
38.501388
 30
0.0
 11
74.41
 21
12.38934
 31
0.0
  0
LINE
  5
E311
100
AcDbEntity
  8
TOP-PCB
100
AcDbLine
 10
72.91
 20
37.698612
 30
0.0
 11
72.91
 21
13.01066
 31
0.0
  0
LINE
  5
E312
100
AcDbEntity
  8
TOP-PCB
100
AcDbLine
 10
74.41
 20
12.38934
 30
0.0
 11
71.43066
 21
9.41
 31
0.0
  0
LINE
  5
E313
100
AcDbEntity
  8
TOP-PCB
100
AcDbLine
 10
72.91
 20
13.01066
 30
0.0
 11
70.80934
 21
10.91
 31
0.0
  0
LINE
  5
E314
100
AcDbEntity
  8
TOP-PCB
100
AcDbLine
 10
71.43066
 20
9.41
 30
0.0
 11
60.838292
 21
9.41
 31
0.0
  0
LINE
  5
E315
100
AcDbEntity
  8
TOP-PCB
100
AcDbLine
 10
70.80934
 20
10.91
 30
0.0
 11
61.081708
 21
10.91
 31
0.0
  0
LINE
  5
E316
100
AcDbEntity
  8
TOP-PCB
100
AcDbLine
 10
60.838292
 20
9.41
 30
0.0
 11
57.028292
 21
10.68
 31
0.0
  0
LINE
  5
E317
100
AcDbEntity
  8
TOP-PCB
100
AcDbLine
 10
61.081708
 20
10.91
 30
0.0
 11
57.271708
 21
12.18
 31
0.0
  0
LINE
  5
E318
100
AcDbEntity
  8
TOP-PCB
100
AcDbLine
 10
57.028292
 20
10.68
 30
0.0
 11
44.76066
 21
10.68
 31
0.0
  0
LINE
  5
E319
100
AcDbEntity
  8
TOP-PCB
100
AcDbLine
 10
57.271708
 20
12.18
 30
0.0
 11
44.13934
 21
12.18
 31
0.0
  0
LINE
  5
E31A
100
AcDbEntity
  8
TOP-PCB
100
AcDbLine
 10
44.76066
 20
10.68
 30
0.0
 11
40.936188
 21
6.855528
 31
0.0
  0
LINE
  5
E31B
100
AcDbEntity
  8
TOP-PCB
100
AcDbLine
 10
44.13934
 20
12.18
 30
0.0
 11
40.343812
 21
8.384472
 31
0.0
  0
LINE
  5
E31C
100
AcDbEntity
  8
TOP-PCB
100
AcDbLine
 10
40.936188
 20
6.855528
 30
0.0
 11
34.314037
 21
7.161237
 31
0.0
  0
LINE
  5
E31D
100
AcDbEntity
  8
TOP-PCB
100
AcDbLine
 10
40.343812
 20
8.384472
 30
0.0
 11
34.539123
 21
8.652444
 31
0.0
  0
LINE
  5
E31E
100
AcDbEntity
  8
TOP-PCB
100
AcDbLine
 10
34.314037
 20
7.161237
 30
0.0
 11
30.806656
 21
8.069871
 31
0.0
  0
LINE
  5
E31F
100
AcDbEntity
  8
TOP-PCB
100
AcDbLine
 10
34.539123
 20
8.652444
 30
0.0
 11
32.306656
 21
9.230794
 31
0.0
  0
LINE
  5
E320
100
AcDbEntity
  8
TOP-PCB
100
AcDbLine
 10
30.806656
 20
8.069871
 30
0.0
 11
30.806656
 21
35.992838
 31
0.0
  0
LINE
  5
E321
100
AcDbEntity
  8
TOP-PCB
100
AcDbLine
 10
32.306656
 20
9.230794
 30
0.0
 11
32.306656
 21
36.751079
 31
0.0
  0
LINE
  5
E324
100
AcDbEntity
  8
TOP-PCB
100
AcDbLine
 10
30.806656
 20
35.992838
 30
0.0
 11
28.963649
 21
37.35
 31
0.0
  0
LINE
  5
E325
100
AcDbEntity
  8
TOP-PCB
100
AcDbLine
 10
32.306656
 20
36.751079
 30
0.0
 11
29.456351
 21
38.85
 31
0.0
  0
LINE
  5
E326
100
AcDbEntity
  8
TOP-PCB
100
AcDbLine
 10
28.963649
 20
37.35
 30
0.0
 11
26.930337
 21
37.35
 31
0.0
  0
LINE
  5
E327
100
AcDbEntity
  8
TOP-PCB
100
AcDbLine
 10
29.456351
 20
38.85
 30
0.0
 11
26.930337
 21
38.85
 31
0.0
  0
LINE
  5
E328
100
AcDbEntity
  8
TOP-PCB
100
AcDbLine
 10
67.570337
 20
64.25
 30
0.0
 11
69.33
 21
64.25
 31
0.0
  0
LINE
  5
E329
100
AcDbEntity
  8
TOP-PCB
100
AcDbLine
 10
67.570337
 20
62.75
 30
0.0
 11
67.83
 21
62.75
 31
0.0
  0
LINE
  5
E32A
100
AcDbEntity
  8
TOP-PCB
100
AcDbLine
 10
69.33
 20
64.25
 30
0.0
 11
69.33
 21
57.142617
 31
0.0
  0
LINE
  5
E32B
100
AcDbEntity
  8
TOP-PCB
100
AcDbLine
 10
67.83
 20
62.75
 30
0.0
 11
67.83
 21
56.620654
 31
0.0
  0
LINE
  5
E32C
100
AcDbEntity
  8
TOP-PCB
100
AcDbLine
 10
69.33
 20
57.142617
 30
0.0
 11
73.14
 21
52.330981
 31
0.0
  0
LINE
  5
E32D
100
AcDbEntity
  8
TOP-PCB
100
AcDbLine
 10
67.83
 20
56.620654
 30
0.0
 11
71.64
 21
51.809019
 31
0.0
  0
LINE
  5
E32E
100
AcDbEntity
  8
TOP-PCB
100
AcDbLine
 10
73.14
 20
52.330981
 30
0.0
 11
73.14
 21
43.93
 31
0.0
  0
LINE
  5
E32F
100
AcDbEntity
  8
TOP-PCB
100
AcDbLine
 10
71.64
 20
51.809019
 30
0.0
 11
71.64
 21
42.43
 31
0.0
  0
LINE
  5
E330
100
AcDbEntity
  8
TOP-PCB
100
AcDbLine
 10
73.14
 20
43.93
 30
0.0
 11
77.158861
 21
43.93
 31
0.0
  0
LINE
  5
E331
100
AcDbEntity
  8
TOP-PCB
100
AcDbLine
 10
71.64
 20
42.43
 30
0.0
 11
77.158861
 21
42.43
 31
0.0
  0
LINE
  5
E334
100
AcDbEntity
  8
TOP-PCB
100
AcDbLine
 10
14.815688
 20
74.009504
 30
0.0
 11
15.76
 21
74.245582
 31
0.0
  0
LWPOLYLINE
  5
E335
100
AcDbEntity
  8
TOP-PCB
  6
CONTINUOUS
100
AcDbPolyline
 90
        4
 70
     0
 43
0.0
 10
49.269663
 20
66.79
 42
-0.195374
 10
49.9995
 20
67.0865
 10
51.6005
 20
67.0865
 42
-0.324693
 10
52.595515
 20
66.364204
  0
LINE
  5
E337
100
AcDbEntity
  8
TOP-PCB
100
AcDbLine
 10
51.809413
 20
65.014565
 30
0.0
 11
55.967258
 21
63.975103
 31
0.0
  0
LWPOLYLINE
  5
E338
100
AcDbEntity
  8
TOP-PCB
  6
CONTINUOUS
100
AcDbPolyline
 90
        5
 70
     0
 43
0.0
 10
64.509663
 20
59.17
 42
-0.195374
 10
65.2395
 20
59.4665
 10
66.8405
 20
59.4665
 42
-1.0
 10
66.8405
 20
57.3735
 10
66.79
 20
57.3735
  0
ARC
  5
E33A
100
AcDbEntity
  8
TOP-PCB
  6
CONTINUOUS
100
AcDbCircle
 10
51.6005
 20
71.12
 30
0.0
 40
1.0465
100
AcDbArc
 50
269.999995
 51
4.566251
  0
LINE
  5
E33B
100
AcDbEntity
  8
TOP-PCB
  6
CONTINUOUS
100
AcDbLine
 10
51.6005
 20
70.0735
 30
0.0
 11
49.9995
 21
70.0735
 31
0.0
  0
ARC
  5
E33C
100
AcDbEntity
  8
TOP-PCB
  6
CONTINUOUS
100
AcDbCircle
 10
49.9995
 20
71.12
 30
0.0
 40
1.0465
100
AcDbArc
 50
89.999995
 51
270.000005
  0
LINE
  5
E33D
100
AcDbEntity
  8
TOP-PCB
  6
CONTINUOUS
100
AcDbLine
 10
49.9995
 20
72.1665
 30
0.0
 11
51.215949
 21
72.1665
 31
0.0
  0
LWPOLYLINE
  5
E33E
100
AcDbEntity
  8
TOP-PCB
  6
CONTINUOUS
100
AcDbPolyline
 90
        4
 70
     0
 43
0.0
 10
23.869663
 20
41.39
 42
-0.195374
 10
24.5995
 20
41.6865
 10
26.2005
 20
41.6865
 42
-0.195374
 10
26.930337
 20
41.39
  0
LWPOLYLINE
  5
E33F
100
AcDbEntity
  8
TOP-PCB
  6
CONTINUOUS
100
AcDbPolyline
 90
        4
 70
     0
 43
0.0
 10
23.869663
 20
38.85
 42
-0.195374
 10
24.5995
 20
39.1465
 10
26.2005
 20
39.1465
 42
-0.195374
 10
26.930337
 20
38.85
  0
LWPOLYLINE
  5
E340
100
AcDbEntity
  8
TOP-PCB
  6
CONTINUOUS
100
AcDbPolyline
 90
        5
 70
     0
 43
0.0
 10
34.0665
 20
3.06
 10
34.0665
 20
3.0095
 42
-1.0
 10
31.9735
 20
3.0095
 10
31.9735
 20
4.6105
 42
-0.195374
 10
32.27
 20
5.340337
  0
LINE
  5
E341
100
AcDbEntity
  8
TOP-PCB
100
AcDbLine
 10
28.69
 20
0.75
 30
0.0
 11
74.466475
 21
0.75
 31
0.0
  0
ARC
  5
E343
100
AcDbEntity
  8
TOP-PCB
  6
CONTINUOUS
100
AcDbCircle
 10
69.3805
 20
17.78
 30
0.0
 40
1.0465
100
AcDbArc
 50
269.999995
 51
51.709082
  0
LINE
  5
E344
100
AcDbEntity
  8
TOP-PCB
  6
CONTINUOUS
100
AcDbLine
 10
69.3805
 20
16.7335
 30
0.0
 11
67.7795
 21
16.7335
 31
0.0
  0
ARC
  5
E345
100
AcDbEntity
  8
TOP-PCB
  6
CONTINUOUS
100
AcDbCircle
 10
67.7795
 20
17.78
 30
0.0
 40
1.0465
100
AcDbArc
 50
89.999995
 51
270.000005
  0
LINE
  5
E346
100
AcDbEntity
  8
TOP-PCB
  6
CONTINUOUS
100
AcDbLine
 10
67.7795
 20
18.8265
 30
0.0
 11
68.376279
 21
18.8265
 31
0.0
  0
CIRCLE
  5
E348
100
AcDbEntity
  8
0
100
AcDbCircle
 10
0.0
 20
2.54
 30
0.0
 40
1.55
  0
CIRCLE
  5
E349
100
AcDbEntity
  8
0
100
AcDbCircle
 10
0.0
 20
77.47
 30
0.0
 40
1.55
  0
CIRCLE
  5
E34A
100
AcDbEntity
  8
0
100
AcDbCircle
 10
90.17
 20
77.47
 30
0.0
 40
1.55
  0
CIRCLE
  5
E34B
100
AcDbEntity
  8
0
100
AcDbCircle
 10
89.89
 20
2.54
 30
0.0
 40
1.55
  0
LWPOLYLINE
  5
E34C
100
AcDbEntity
  8
0
100
AcDbPolyline
 90
        4
 70
     1
 43
0.0
 10
-6.35
 20
83.82
 10
93.909162
 20
83.82
 10
93.909162
 20
-3.81
 10
-6.35
 20
-3.81
  0
CIRCLE
  5
E362
100
AcDbEntity
  8
0
100
AcDbCircle
 10
43.779581
 20
40.005
 30
0.0
 40
0.15
  0
LINE
  5
E367
100
AcDbEntity
  8
BOTT-PCB
100
AcDbLine
 10
78.403301
 20
23.61
 30
0.0
 11
73.66
 21
23.61
 31
0.0
  0
LINE
  5
E368
100
AcDbEntity
  8
BOTT-PCB
100
AcDbLine
 10
60.676291
 20
17.03
 30
0.0
 11
58.242949
 21
17.03
 31
0.0
  0
LINE
  5
E369
100
AcDbEntity
  8
BOTT-PCB
100
AcDbLine
 10
14.67342
 20
68.42422
 30
0.0
 11
9.910991
 21
68.42422
 31
0.0
  0
LINE
  5
E36A
100
AcDbEntity
  8
BOTT-PCB
100
AcDbLine
 10
14.875842
 20
69.92422
 30
0.0
 11
9.319258
 21
69.92422
 31
0.0
  0
LINE
  5
E6CC
100
AcDbEntity
  8
BOTT-PCB
100
AcDbLine
 10
42.43
 20
52.330337
 30
0.0
 11
42.43
 21
54.406666
 31
0.0
  0
LINE
  5
E6CD
100
AcDbEntity
  8
BOTT-PCB
100
AcDbLine
 10
43.93
 20
52.330337
 30
0.0
 11
43.93
 21
54.813334
 31
0.0
  0
LINE
  5
E6CE
100
AcDbEntity
  8
BOTT-PCB
100
AcDbLine
 10
42.43
 20
54.406666
 30
0.0
 11
39.512202
 21
59.392304
 31
0.0
  0
LINE
  5
E6CF
100
AcDbEntity
  8
BOTT-PCB
100
AcDbLine
 10
43.93
 20
54.813334
 30
0.0
 11
40.940848
 21
59.920895
 31
0.0
  0
LINE
  5
E6D0
100
AcDbEntity
  8
BOTT-PCB
100
AcDbLine
 10
39.512202
 20
59.392304
 30
0.0
 11
39.440848
 21
59.515473
 31
0.0
  0
LWPOLYLINE
  5
E6D2
100
AcDbEntity
  8
BOTT-PCB
  6
CONTINUOUS
100
AcDbPolyline
 90
        4
 70
     1
 43
0.0
 10
44.6735
 20
51.6005
 42
-1.0
 10
46.7665
 20
51.6005
 10
46.7665
 20
49.9995
 42
-1.0
 10
44.6735
 20
49.9995
  0
ENDSEC
  0
SECTION
  2
OBJECTS
  0
DICTIONARY
  5
C
100
AcDbDictionary
  3
ACAD_GROUP
350
D
  3
ACAD_MLINESTYLE
350
1B
  0
DICTIONARY
  5
D
102
{ACAD_REACTORS
330
C
102
}
100
AcDbDictionary
  3
*A1
350
D344
  3
*A2
350
D49C
  3
*A3
350
D413
  3
*A4
350
D35F
  3
*A5
350
DA71
  3
*A6
350
DA72
  3
*A7
350
DA73
  3
*A8
350
DA74
  3
*A9
350
D36C
  3
*A10
350
DA75
  3
*A11
350
DA76
  3
*A12
350
DA77
  3
*A13
350
D49D
  3
*A14
350
DA78
  3
*A15
350
D350
  3
*A16
350
D406
  3
*A17
350
D45B
  3
*A18
350
D414
  3
*A19
350
DA79
  3
*A20
350
DA7A
  3
*A21
350
DA7B
  3
*A22
350
DA7C
  3
*A23
350
DA7D
  3
*A24
350
D49E
  3
*A25
350
DA7E
  3
*A26
350
D36D
  3
*A27
350
DA7F
  3
*A28
350
DA80
  3
*A29
350
D45C
  3
*A30
350
DA81
  3
*A31
350
D358
  3
*A32
350
D3C5
  3
*A33
350
DA82
  3
*A34
350
DA83
  3
*A35
350
D456
  3
*A36
350
DA84
  3
*A37
350
DA85
  3
*A38
350
DA86
  3
*A39
350
DA87
  3
*A40
350
DA88
  3
*A41
350
D45D
  3
*A42
350
D36E
  3
*A43
350
DA89
  3
*A44
350
D400
  3
*A45
350
D415
  3
*A46
350
D49F
  3
*A47
350
DA8A
  3
*A48
350
D3C6
  3
*A49
350
DA8B
  3
*A50
350
DA8C
  3
*A51
350
DA8D
  3
*A52
350
DA8E
  3
*A53
350
D45E
  3
*A54
350
DA8F
  3
*A55
350
DA90
  3
*A56
350
DA91
  3
*A57
350
D4A0
  3
*A58
350
DA92
  3
*A59
350
D416
  3
*A60
350
D36F
  3
*A61
350
DA93
  3
*A62
350
D3C7
  3
*A63
350
DA94
  3
*A64
350
DA95
  3
*A65
350
D408
  3
*A66
350
DA96
  3
*A67
350
DA97
  3
*A68
350
D3AE
  3
*A69
350
DA98
  3
*A70
350
DA99
  3
*A71
350
DA9A
  3
*A72
350
D417
  3
*A73
350
DA9B
  3
*A74
350
DA9C
  3
*A75
350
D370
  3
*A76
350
D3C8
  3
*A77
350
D45F
  3
*A78
350
DA9D
  3
*A79
350
D40D
  3
*A80
350
DA9E
  3
*A81
350
DA9F
  3
*A82
350
DAA0
  3
*A83
350
DAA1
  3
*A84
350
DAA2
  3
*A85
350
D418
  3
*A86
350
DAA3
  3
*A87
350
DAA4
  3
*A88
350
DAA5
  3
*A89
350
D460
  3
*A90
350
D366
  3
*A91
350
DAA6
  3
*A92
350
D3A8
  3
*A93
350
D3C9
  3
*A94
350
D371
  3
*A95
350
DAA7
  3
*A96
350
DAA8
  3
*A97
350
DAA9
  3
*A98
350
D419
  3
*A99
350
DAAA
  3
*A100
350
DAAB
  3
*A101
350
D3BE
  3
*A102
350
D461
  3
*A103
350
DAAC
  3
*A104
350
DAAD
  3
*A105
350
DAAE
  3
*A106
350
DAAF
  3
*A107
350
D3CA
  3
*A108
350
DAB0
  3
*A109
350
D372
  3
*A110
350
DAB1
  3
*A111
350
D34E
  3
*A112
350
D455
  3
*A113
350
D4A1
  3
*A114
350
DAB2
  3
*A115
350
D462
  3
*A116
350
DAB3
  3
*A117
350
DAB4
  3
*A118
350
DAB5
  3
*A119
350
DAB6
  3
*A120
350
DAB7
  3
*A121
350
DAB8
  3
*A122
350
D3CB
  3
*A123
350
DAB9
  3
*A124
350
D4A2
  3
*A125
350
DABA
  3
*A126
350
D41A
  3
*A127
350
D3B8
  3
*A128
350
D373
  3
*A129
350
DABB
  3
*A130
350
DABC
  3
*A131
350
DABD
  3
*A132
350
DABE
  3
*A133
350
DABF
  3
*A134
350
DAC0
  3
*A135
350
D4A3
  3
*A136
350
DAC1
  3
*A137
350
D3CC
  3
*A138
350
DAC2
  3
*A139
350
D450
  3
*A140
350
D463
  3
*A141
350
D41B
  3
*A142
350
DAC3
  3
*A143
350
DAC4
  3
*A144
350
D374
  3
*A145
350
DAC5
  3
*A146
350
D4A4
  3
*A147
350
DAC6
  3
*A148
350
DAC7
  3
*A149
350
DAC8
  3
*A150
350
DAC9
  3
*A151
350
DACA
  3
*A152
350
D464
  3
*A153
350
D3CD
  3
*A154
350
D41C
  3
*A155
350
DACB
  3
*A156
350
DACC
  3
*A157
350
D457
  3
*A158
350
DACD
  3
*A159
350
DACE
  3
*A160
350
D348
  3
*A161
350
D375
  3
*A162
350
DACF
  3
*A163
350
DAD0
  3
*A164
350
D360
  3
*A165
350
DAD1
  3
*A166
350
DAD2
  3
*A167
350
D41D
  3
*A168
350
D4A5
  3
*A169
350
D3CE
  3
*A170
350
DAD3
  3
*A171
350
DAD4
  3
*A172
350
DAD5
  3
*A173
350
DAD6
  3
*A174
350
DAD7
  3
*A175
350
DAD8
  3
*A176
350
D465
  3
*A177
350
D376
  3
*A178
350
DAD9
  3
*A179
350
D4A6
  3
*A180
350
DADA
  3
*A181
350
D356
  3
*A182
350
D41E
  3
*A183
350
DADB
  3
*A184
350
D351
  3
*A185
350
DADC
  3
*A186
350
DADD
  3
*A187
350
DADE
  3
*A188
350
D466
  3
*A189
350
DADF
  3
*A190
350
D4A7
  3
*A191
350
DAE0
  3
*A192
350
DAE1
  3
*A193
350
DAE2
  3
*A194
350
D377
  3
*A195
350
D359
  3
*A196
350
DAE3
  3
*A197
350
DAE4
  3
*A198
350
D3CF
  3
*A199
350
DAE5
  3
*A200
350
D3AF
  3
*A201
350
D4A8
  3
*A202
350
DAE6
  3
*A203
350
DAE7
  3
*A204
350
DAE8
  3
*A205
350
DAE9
  3
*A206
350
DAEA
  3
*A207
350
DAEB
  3
*A208
350
D41F
  3
*A209
350
DAEC
  3
*A210
350
D378
  3
*A211
350
DAED
  3
*A212
350
D40E
  3
*A213
350
D467
  3
*A214
350
D3D0
  3
*A215
350
DAEE
  3
*A216
350
DAEF
  3
*A217
350
DAF0
  3
*A218
350
DAF1
  3
*A219
350
DAF2
  3
*A220
350
DAF3
  3
*A221
350
D420
  3
*A222
350
DAF4
  3
*A223
350
D497
  3
*A224
350
D4A9
  3
*A225
350
DAF5
  3
*A226
350
D468
  3
*A227
350
DAF6
  3
*A228
350
D379
  3
*A229
350
D3D1
  3
*A230
350
DAF7
  3
*A231
350
DAF8
  3
*A232
350
DAF9
  3
*A233
350
DAFA
  3
*A234
350
DAFB
  3
*A235
350
D4AA
  3
*A236
350
D421
  3
*A237
350
DAFC
  3
*A238
350
D469
  3
*A239
350
DAFD
  3
*A240
350
DAFE
  3
*A241
350
DAFF
  3
*A242
350
DB00
  3
*A243
350
D3A9
  3
*A244
350
D3D2
  3
*A245
350
D37A
  3
*A246
350
D3BF
  3
*A247
350
DB01
  3
*A248
350
DB02
  3
*A249
350
D422
  3
*A250
350
D46A
  3
*A251
350
DB03
  3
*A252
350
DB04
  3
*A253
350
DB05
  3
*A254
350
DB06
  3
*A255
350
DB07
  3
*A256
350
DB08
  3
*A257
350
D367
  3
*A258
350
DB09
  3
*A259
350
D3D3
  3
*A260
350
DB0A
  3
*A261
350
D37B
  3
*A262
350
D3B6
  3
*A263
350
D46B
  3
*A264
350
D3B1
  3
*A265
350
DB0B
  3
*A266
350
DB0C
  3
*A267
350
DB0D
  3
*A268
350
D4AB
  3
*A269
350
DB0E
  3
*A270
350
DB0F
  3
*A271
350
DB10
  3
*A272
350
DB11
  3
*A273
350
D3D4
  3
*A274
350
D37C
  3
*A275
350
D3B9
  3
*A276
350
DB70
  3
*A277
350
D423
  3
*A278
350
DB71
  3
*A279
350
D407
  3
*A280
350
DB75
  3
*A281
350
DB76
  3
*A282
350
DB7A
  3
*A283
350
DB7B
  3
*A284
350
DB7F
  3
*A285
350
D3D5
  3
*A286
350
DB80
  3
*A287
350
D46C
  3
*A288
350
DB84
  3
*A289
350
DB85
  3
*A290
350
D4AC
  3
*A291
350
D424
  3
*A292
350
D37D
  3
*A293
350
DB89
  3
*A294
350
DB8A
  3
*A295
350
D3D6
  3
*A296
350
D37E
  3
*A297
350
DBA2
  3
*A298
350
D425
  3
*A299
350
D46D
  3
*A300
350
DBA3
  3
*A301
350
D4AD
  3
*A302
350
DBA7
  3
*A303
350
DBA8
  3
*A304
350
DBAC
  3
*A305
350
D3D7
  3
*A306
350
DBAD
  3
*A307
350
DBC6
  3
*A308
350
DBCD
  3
*A309
350
D349
  3
*A310
350
D37F
  3
*A311
350
D46E
  3
*A312
350
D4AE
  3
*A313
350
D401
  3
*A314
350
D426
  3
*A315
350
D3D8
  3
*A316
350
DC29
  3
*A317
350
DC2C
  3
*A318
350
DC2D
  3
*A319
350
DC33
  3
*A320
350
D380
  3
*A321
350
D352
  3
*A322
350
D381
  3
*A323
350
D4AF
  3
*A324
350
D346
  3
*A325
350
D3D9
  3
*A326
350
DC6D
  3
*A327
350
D427
  3
*A328
350
DC6E
  3
*A329
350
D382
  3
*A330
350
D3DA
  3
*A331
350
D383
  3
*A332
350
D3AA
  3
*A333
350
D428
  3
*A334
350
D40C
  3
*A335
350
D4B0
  3
*A336
350
D3DB
  3
*A337
350
D409
  3
*A338
350
D3DC
  3
*A339
350
D384
  3
*A340
350
D35A
  3
*A341
350
D3DD
  3
*A342
350
D385
  3
*A343
350
D3DE
  3
*A344
350
D429
  3
*A345
350
D386
  3
*A346
350
D40F
  3
*A347
350
D3DF
  3
*A348
350
D387
  3
*A349
350
D361
  3
*A350
350
D42A
  3
*A351
350
DCF4
  3
*A352
350
DCF5
  3
*A353
350
DCF9
  3
*A354
350
DCFA
  3
*A355
350
D3E0
  3
*A356
350
D388
  3
*A357
350
D4B1
  3
*A358
350
D42B
  3
*A359
350
D3E1
  3
*A360
350
D34A
  3
*A361
350
D46F
  3
*A362
350
D389
  3
*A363
350
D3E2
  3
*A364
350
D3B2
  3
*A365
350
DD35
  3
*A366
350
D38A
  3
*A367
350
D353
  3
*A368
350
D4B2
  3
*A369
350
D38B
  3
*A370
350
D38C
  3
*A371
350
D38D
  3
*A372
350
D38E
  3
*A373
350
D470
  3
*A374
350
D38F
  3
*A375
350
D3E3
  3
*A376
350
D42C
  3
*A377
350
D390
  3
*A378
350
D391
  3
*A379
350
D4B3
  3
*A380
350
D392
  3
*A381
350
D34B
  3
*A382
350
D393
  3
*A383
350
D394
  3
*A384
350
D395
  3
*A385
350
D35E
  3
*A386
350
D471
  3
*A387
350
D396
  3
*A388
350
D397
  3
*A389
350
D398
  3
*A390
350
D3A7
  3
*A391
350
D42D
  3
*A392
350
D3AB
  3
*A393
350
D3E4
  3
*A394
350
D399
  3
*A395
350
D39A
  3
*A396
350
D39B
  3
*A397
350
D39C
  3
*A398
350
D472
  3
*A399
350
D34C
  3
*A400
350
D39D
  3
*A401
350
D458
  3
*A402
350
D39E
  3
*A403
350
D39F
  3
*A404
350
D402
  3
*A405
350
D42E
  3
*A406
350
D3A0
  3
*A407
350
D3A1
  3
*A408
350
D3E5
  3
*A409
350
D3A2
  3
*A410
350
D473
  3
*A411
350
D3A3
  3
*A412
350
D3C0
  3
*A413
350
D3A4
  3
*A414
350
D3A5
  3
*A415
350
D3A6
  3
*A416
350
D3E6
  3
*A417
350
D3E7
  3
*A418
350
D42F
  3
*A419
350
D3E8
  3
*A420
350
D3E9
  3
*A421
350
D3EA
  3
*A422
350
D3BA
  3
*A423
350
D4B4
  3
*A424
350
D3EB
  3
*A425
350
D3EC
  3
*A426
350
D354
  3
*A427
350
D3AC
  3
*A428
350
D3ED
  3
*A429
350
D3EE
  3
*A430
350
D3EF
  3
*A431
350
D430
  3
*A432
350
D3F0
  3
*A433
350
D3F1
  3
*A434
350
D368
  3
*A435
350
D474
  3
*A436
350
D3F2
  3
*A437
350
D3F3
  3
*A438
350
D3F4
  3
*A439
350
D3F5
  3
*A440
350
D3F6
  3
*A441
350
D3AD
  3
*A442
350
D355
  3
*A443
350
D3F7
  3
*A444
350
D431
  3
*A445
350
D3BD
  3
*A446
350
D4B5
  3
*A447
350
D3F8
  3
*A448
350
D475
  3
*A449
350
D3F9
  3
*A450
350
D3FA
  3
*A451
350
D3FB
  3
*A452
350
D3FC
  3
*A453
350
D3FD
  3
*A454
350
D3FE
  3
*A455
350
D3FF
  3
*A456
350
D432
  3
*A457
350
D4B6
  3
*A458
350
D476
  3
*A459
350
D35B
  3
*A460
350
D433
  3
*A461
350
D40A
  3
*A462
350
D434
  3
*A463
350
D3B3
  3
*A464
350
D477
  3
*A465
350
D435
  3
*A466
350
D478
  3
*A467
350
D403
  3
*A468
350
D4B7
  3
*A469
350
D436
  3
*A470
350
D437
  3
*A471
350
D451
  3
*A472
350
D362
  3
*A473
350
D438
  3
*A474
350
D439
  3
*A475
350
D43A
  3
*A476
350
D43B
  3
*A477
350
D479
  3
*A478
350
D43C
  3
*A479
350
D410
  3
*A480
350
D35C
  3
*A481
350
D43D
  3
*A482
350
D3B4
  3
*A483
350
D404
  3
*A484
350
D43E
  3
*A485
350
D43F
  3
*A486
350
D440
  3
*A487
350
D441
  3
*A488
350
D442
  3
*A489
350
D47A
  3
*A490
350
D4B8
  3
*A491
350
D443
  3
*A492
350
D444
  3
*A493
350
D445
  3
*A494
350
D446
  3
*A495
350
D35D
  3
*A496
350
D405
  3
*A497
350
D3B5
  3
*A498
350
D447
  3
*A499
350
D448
  3
*A500
350
D449
  3
*A501
350
D4B9
  3
*A502
350
D47B
  3
*A503
350
D44A
  3
*A504
350
D44B
  3
*A505
350
D44C
  3
*A506
350
D44D
  3
*A507
350
D44E
  3
*A508
350
D44F
  3
*A509
350
D47C
  3
*A510
350
D34F
  3
*A511
350
D47D
  3
*A512
350
D4BA
  3
*A513
350
D47E
  3
*A514
350
D345
  3
*A515
350
D47F
  3
*A516
350
D452
  3
*A517
350
D480
  3
*A518
350
D481
  3
*A519
350
D482
  3
*A520
350
D363
  3
*A521
350
D483
  3
*A522
350
D484
  3
*A523
350
D459
  3
*A524
350
D485
  3
*A525
350
D3BB
  3
*A526
350
D486
  3
*A527
350
D357
  3
*A528
350
D453
  3
*A529
350
D487
  3
*A530
350
D488
  3
*A531
350
D489
  3
*A532
350
D48A
  3
*A533
350
D48B
  3
*A534
350
D4BB
  3
*A535
350
D48C
  3
*A536
350
D364
  3
*A537
350
D48D
  3
*A538
350
D48E
  3
*A539
350
D3BC
  3
*A540
350
D454
  3
*A541
350
D40B
  3
*A542
350
D48F
  3
*A543
350
D490
  3
*A544
350
D491
  3
*A545
350
D4BC
  3
*A546
350
D492
  3
*A547
350
D493
  3
*A548
350
D494
  3
*A549
350
D495
  3
*A550
350
D496
  3
*A551
350
D365
  3
*A552
350
D498
  3
*A553
350
D3C1
  3
*A554
350
D4BD
  3
*A555
350
D4BE
  3
*A556
350
D369
  3
*A557
350
D4BF
  3
*A558
350
D3B0
  3
*A559
350
D4C0
  3
*A560
350
D4C1
  3
*A561
350
D34D
  3
*A562
350
D4C2
  3
*A563
350
D499
  3
*A564
350
D4C3
  3
*A565
350
D4C4
  3
*A566
350
D4C5
  3
*A567
350
D3C2
  3
*A568
350
D4C6
  3
*A569
350
D4C7
  3
*A570
350
D4C8
  3
*A571
350
D411
  3
*A572
350
D36A
  3
*A573
350
D3B7
  3
*A574
350
D49A
  3
*A575
350
D4C9
  3
*A576
350
D4CA
  3
*A577
350
D4CB
  3
*A578
350
D4CC
  3
*A579
350
D4CD
  3
*A580
350
D4CE
  3
*A581
350
D3C3
  3
*A582
350
DA68
  3
*A583
350
D412
  3
*A584
350
DA6A
  3
*A585
350
D49B
  3
*A586
350
D45A
  3
*A587
350
D347
  3
*A588
350
D36B
  3
*A589
350
DA6B
  3
*A590
350
DA6C
  3
*A591
350
DA6D
  3
*A592
350
DA6E
  3
*A593
350
DA6F
  3
*A594
350
D3C4
  3
*A595
350
DA70
  0
DICTIONARY
  5
1B
102
{ACAD_REACTORS
330
C
102
}
100
AcDbDictionary
  3
STANDARD
350
1C
  0
GROUP
  5
D344
102
{ACAD_REACTORS
330
D
102
}
100
AcDbGroup
300

 70
     1
 71
     1
  0
GROUP
  5
D49C
102
{ACAD_REACTORS
330
D
102
}
100
AcDbGroup
300

 70
     1
 71
     1
  0
GROUP
  5
D413
102
{ACAD_REACTORS
330
D
102
}
100
AcDbGroup
300

 70
     1
 71
     1
  0
GROUP
  5
D35F
102
{ACAD_REACTORS
330
D
102
}
100
AcDbGroup
300

 70
     1
 71
     1
  0
GROUP
  5
DA71
102
{ACAD_REACTORS
330
D
102
}
100
AcDbGroup
300

 70
     1
 71
     1
  0
GROUP
  5
DA72
102
{ACAD_REACTORS
330
D
102
}
100
AcDbGroup
300

 70
     1
 71
     1
  0
GROUP
  5
DA73
102
{ACAD_REACTORS
330
D
102
}
100
AcDbGroup
300

 70
     1
 71
     1
  0
GROUP
  5
DA74
102
{ACAD_REACTORS
330
D
102
}
100
AcDbGroup
300

 70
     1
 71
     1
  0
GROUP
  5
D36C
102
{ACAD_REACTORS
330
D
102
}
100
AcDbGroup
300

 70
     1
 71
     1
  0
GROUP
  5
DA75
102
{ACAD_REACTORS
330
D
102
}
100
AcDbGroup
300

 70
     1
 71
     1
  0
GROUP
  5
DA76
102
{ACAD_REACTORS
330
D
102
}
100
AcDbGroup
300

 70
     1
 71
     1
  0
GROUP
  5
DA77
102
{ACAD_REACTORS
330
D
102
}
100
AcDbGroup
300

 70
     1
 71
     1
  0
GROUP
  5
D49D
102
{ACAD_REACTORS
330
D
102
}
100
AcDbGroup
300

 70
     1
 71
     1
  0
GROUP
  5
DA78
102
{ACAD_REACTORS
330
D
102
}
100
AcDbGroup
300

 70
     1
 71
     1
  0
GROUP
  5
D350
102
{ACAD_REACTORS
330
D
102
}
100
AcDbGroup
300

 70
     3
 71
     1
  0
GROUP
  5
D406
102
{ACAD_REACTORS
330
D
102
}
100
AcDbGroup
300

 70
     1
 71
     1
  0
GROUP
  5
D45B
102
{ACAD_REACTORS
330
D
102
}
100
AcDbGroup
300

 70
     3
 71
     1
  0
GROUP
  5
D414
102
{ACAD_REACTORS
330
D
102
}
100
AcDbGroup
300

 70
     1
 71
     1
  0
GROUP
  5
DA79
102
{ACAD_REACTORS
330
D
102
}
100
AcDbGroup
300

 70
     1
 71
     1
  0
GROUP
  5
DA7A
102
{ACAD_REACTORS
330
D
102
}
100
AcDbGroup
300

 70
     1
 71
     1
  0
GROUP
  5
DA7B
102
{ACAD_REACTORS
330
D
102
}
100
AcDbGroup
300

 70
     1
 71
     1
  0
GROUP
  5
DA7C
102
{ACAD_REACTORS
330
D
102
}
100
AcDbGroup
300

 70
     1
 71
     1
  0
GROUP
  5
DA7D
102
{ACAD_REACTORS
330
D
102
}
100
AcDbGroup
300

 70
     1
 71
     1
  0
GROUP
  5
D49E
102
{ACAD_REACTORS
330
D
102
}
100
AcDbGroup
300

 70
     1
 71
     1
  0
GROUP
  5
DA7E
102
{ACAD_REACTORS
330
D
102
}
100
AcDbGroup
300

 70
     1
 71
     1
  0
GROUP
  5
D36D
102
{ACAD_REACTORS
330
D
102
}
100
AcDbGroup
300

 70
     1
 71
     1
  0
GROUP
  5
DA7F
102
{ACAD_REACTORS
330
D
102
}
100
AcDbGroup
300

 70
     1
 71
     1
  0
GROUP
  5
DA80
102
{ACAD_REACTORS
330
D
102
}
100
AcDbGroup
300

 70
     1
 71
     1
  0
GROUP
  5
D45C
102
{ACAD_REACTORS
330
D
102
}
100
AcDbGroup
300

 70
     3
 71
     1
  0
GROUP
  5
DA81
102
{ACAD_REACTORS
330
D
102
}
100
AcDbGroup
300

 70
     1
 71
     1
  0
GROUP
  5
D358
102
{ACAD_REACTORS
330
D
102
}
100
AcDbGroup
300

 70
     1
 71
     1
  0
GROUP
  5
D3C5
102
{ACAD_REACTORS
330
D
102
}
100
AcDbGroup
300

 70
     3
 71
     1
  0
GROUP
  5
DA82
102
{ACAD_REACTORS
330
D
102
}
100
AcDbGroup
300

 70
     1
 71
     1
  0
GROUP
  5
DA83
102
{ACAD_REACTORS
330
D
102
}
100
AcDbGroup
300

 70
     1
 71
     1
  0
GROUP
  5
D456
102
{ACAD_REACTORS
330
D
102
}
100
AcDbGroup
300

 70
     3
 71
     1
  0
GROUP
  5
DA84
102
{ACAD_REACTORS
330
D
102
}
100
AcDbGroup
300

 70
     1
 71
     1
  0
GROUP
  5
DA85
102
{ACAD_REACTORS
330
D
102
}
100
AcDbGroup
300

 70
     1
 71
     1
  0
GROUP
  5
DA86
102
{ACAD_REACTORS
330
D
102
}
100
AcDbGroup
300

 70
     1
 71
     1
  0
GROUP
  5
DA87
102
{ACAD_REACTORS
330
D
102
}
100
AcDbGroup
300

 70
     1
 71
     1
  0
GROUP
  5
DA88
102
{ACAD_REACTORS
330
D
102
}
100
AcDbGroup
300

 70
     1
 71
     1
  0
GROUP
  5
D45D
102
{ACAD_REACTORS
330
D
102
}
100
AcDbGroup
300

 70
     1
 71
     1
  0
GROUP
  5
D36E
102
{ACAD_REACTORS
330
D
102
}
100
AcDbGroup
300

 70
     1
 71
     1
  0
GROUP
  5
DA89
102
{ACAD_REACTORS
330
D
102
}
100
AcDbGroup
300

 70
     1
 71
     1
  0
GROUP
  5
D400
102
{ACAD_REACTORS
330
D
102
}
100
AcDbGroup
300

 70
     1
 71
     1
  0
GROUP
  5
D415
102
{ACAD_REACTORS
330
D
102
}
100
AcDbGroup
300

 70
     1
 71
     1
  0
GROUP
  5
D49F
102
{ACAD_REACTORS
330
D
102
}
100
AcDbGroup
300

 70
     1
 71
     1
  0
GROUP
  5
DA8A
102
{ACAD_REACTORS
330
D
102
}
100
AcDbGroup
300

 70
     1
 71
     1
  0
GROUP
  5
D3C6
102
{ACAD_REACTORS
330
D
102
}
100
AcDbGroup
300

 70
     3
 71
     1
  0
GROUP
  5
DA8B
102
{ACAD_REACTORS
330
D
102
}
100
AcDbGroup
300

 70
     1
 71
     1
  0
GROUP
  5
DA8C
102
{ACAD_REACTORS
330
D
102
}
100
AcDbGroup
300

 70
     1
 71
     1
  0
GROUP
  5
DA8D
102
{ACAD_REACTORS
330
D
102
}
100
AcDbGroup
300

 70
     1
 71
     1
  0
GROUP
  5
DA8E
102
{ACAD_REACTORS
330
D
102
}
100
AcDbGroup
300

 70
     1
 71
     1
  0
GROUP
  5
D45E
102
{ACAD_REACTORS
330
D
102
}
100
AcDbGroup
300

 70
     3
 71
     1
  0
GROUP
  5
DA8F
102
{ACAD_REACTORS
330
D
102
}
100
AcDbGroup
300

 70
     1
 71
     1
  0
GROUP
  5
DA90
102
{ACAD_REACTORS
330
D
102
}
100
AcDbGroup
300

 70
     1
 71
     1
  0
GROUP
  5
DA91
102
{ACAD_REACTORS
330
D
102
}
100
AcDbGroup
300

 70
     1
 71
     1
  0
GROUP
  5
D4A0
102
{ACAD_REACTORS
330
D
102
}
100
AcDbGroup
300

 70
     1
 71
     1
  0
GROUP
  5
DA92
102
{ACAD_REACTORS
330
D
102
}
100
AcDbGroup
300

 70
     1
 71
     1
  0
GROUP
  5
D416
102
{ACAD_REACTORS
330
D
102
}
100
AcDbGroup
300

 70
     1
 71
     1
  0
GROUP
  5
D36F
102
{ACAD_REACTORS
330
D
102
}
100
AcDbGroup
300

 70
     1
 71
     1
  0
GROUP
  5
DA93
102
{ACAD_REACTORS
330
D
102
}
100
AcDbGroup
300

 70
     1
 71
     1
  0
GROUP
  5
D3C7
102
{ACAD_REACTORS
330
D
102
}
100
AcDbGroup
300

 70
     3
 71
     1
  0
GROUP
  5
DA94
102
{ACAD_REACTORS
330
D
102
}
100
AcDbGroup
300

 70
     1
 71
     1
  0
GROUP
  5
DA95
102
{ACAD_REACTORS
330
D
102
}
100
AcDbGroup
300

 70
     1
 71
     1
  0
GROUP
  5
D408
102
{ACAD_REACTORS
330
D
102
}
100
AcDbGroup
300

 70
     1
 71
     1
  0
GROUP
  5
DA96
102
{ACAD_REACTORS
330
D
102
}
100
AcDbGroup
300

 70
     1
 71
     1
  0
GROUP
  5
DA97
102
{ACAD_REACTORS
330
D
102
}
100
AcDbGroup
300

 70
     1
 71
     1
  0
GROUP
  5
D3AE
102
{ACAD_REACTORS
330
D
102
}
100
AcDbGroup
300

 70
     3
 71
     1
  0
GROUP
  5
DA98
102
{ACAD_REACTORS
330
D
102
}
100
AcDbGroup
300

 70
     1
 71
     1
  0
GROUP
  5
DA99
102
{ACAD_REACTORS
330
D
102
}
100
AcDbGroup
300

 70
     1
 71
     1
  0
GROUP
  5
DA9A
102
{ACAD_REACTORS
330
D
102
}
100
AcDbGroup
300

 70
     1
 71
     1
  0
GROUP
  5
D417
102
{ACAD_REACTORS
330
D
102
}
100
AcDbGroup
300

 70
     3
 71
     1
  0
GROUP
  5
DA9B
102
{ACAD_REACTORS
330
D
102
}
100
AcDbGroup
300

 70
     1
 71
     1
  0
GROUP
  5
DA9C
102
{ACAD_REACTORS
330
D
102
}
100
AcDbGroup
300

 70
     1
 71
     1
  0
GROUP
  5
D370
102
{ACAD_REACTORS
330
D
102
}
100
AcDbGroup
300

 70
     1
 71
     1
  0
GROUP
  5
D3C8
102
{ACAD_REACTORS
330
D
102
}
100
AcDbGroup
300

 70
     3
 71
     1
  0
GROUP
  5
D45F
102
{ACAD_REACTORS
330
D
102
}
100
AcDbGroup
300

 70
     3
 71
     1
  0
GROUP
  5
DA9D
102
{ACAD_REACTORS
330
D
102
}
100
AcDbGroup
300

 70
     1
 71
     1
  0
GROUP
  5
D40D
102
{ACAD_REACTORS
330
D
102
}
100
AcDbGroup
300

 70
     1
 71
     1
  0
GROUP
  5
DA9E
102
{ACAD_REACTORS
330
D
102
}
100
AcDbGroup
300

 70
     1
 71
     1
  0
GROUP
  5
DA9F
102
{ACAD_REACTORS
330
D
102
}
100
AcDbGroup
300

 70
     1
 71
     1
  0
GROUP
  5
DAA0
102
{ACAD_REACTORS
330
D
102
}
100
AcDbGroup
300

 70
     1
 71
     1
  0
GROUP
  5
DAA1
102
{ACAD_REACTORS
330
D
102
}
100
AcDbGroup
300

 70
     1
 71
     1
  0
GROUP
  5
DAA2
102
{ACAD_REACTORS
330
D
102
}
100
AcDbGroup
300

 70
     1
 71
     1
  0
GROUP
  5
D418
102
{ACAD_REACTORS
330
D
102
}
100
AcDbGroup
300

 70
     3
 71
     1
  0
GROUP
  5
DAA3
102
{ACAD_REACTORS
330
D
102
}
100
AcDbGroup
300

 70
     1
 71
     1
  0
GROUP
  5
DAA4
102
{ACAD_REACTORS
330
D
102
}
100
AcDbGroup
300

 70
     1
 71
     1
  0
GROUP
  5
DAA5
102
{ACAD_REACTORS
330
D
102
}
100
AcDbGroup
300

 70
     1
 71
     1
  0
GROUP
  5
D460
102
{ACAD_REACTORS
330
D
102
}
100
AcDbGroup
300

 70
     3
 71
     1
  0
GROUP
  5
D366
102
{ACAD_REACTORS
330
D
102
}
100
AcDbGroup
300

 70
     1
 71
     1
  0
GROUP
  5
DAA6
102
{ACAD_REACTORS
330
D
102
}
100
AcDbGroup
300

 70
     1
 71
     1
  0
GROUP
  5
D3A8
102
{ACAD_REACTORS
330
D
102
}
100
AcDbGroup
300

 70
     3
 71
     1
  0
GROUP
  5
D3C9
102
{ACAD_REACTORS
330
D
102
}
100
AcDbGroup
300

 70
     3
 71
     1
  0
GROUP
  5
D371
102
{ACAD_REACTORS
330
D
102
}
100
AcDbGroup
300

 70
     1
 71
     1
  0
GROUP
  5
DAA7
102
{ACAD_REACTORS
330
D
102
}
100
AcDbGroup
300

 70
     1
 71
     1
  0
GROUP
  5
DAA8
102
{ACAD_REACTORS
330
D
102
}
100
AcDbGroup
300

 70
     1
 71
     1
  0
GROUP
  5
DAA9
102
{ACAD_REACTORS
330
D
102
}
100
AcDbGroup
300

 70
     1
 71
     1
  0
GROUP
  5
D419
102
{ACAD_REACTORS
330
D
102
}
100
AcDbGroup
300

 70
     1
 71
     1
  0
GROUP
  5
DAAA
102
{ACAD_REACTORS
330
D
102
}
100
AcDbGroup
300

 70
     1
 71
     1
  0
GROUP
  5
DAAB
102
{ACAD_REACTORS
330
D
102
}
100
AcDbGroup
300

 70
     1
 71
     1
  0
GROUP
  5
D3BE
102
{ACAD_REACTORS
330
D
102
}
100
AcDbGroup
300

 70
     3
 71
     1
  0
GROUP
  5
D461
102
{ACAD_REACTORS
330
D
102
}
100
AcDbGroup
300

 70
     3
 71
     1
  0
GROUP
  5
DAAC
102
{ACAD_REACTORS
330
D
102
}
100
AcDbGroup
300

 70
     1
 71
     1
  0
GROUP
  5
DAAD
102
{ACAD_REACTORS
330
D
102
}
100
AcDbGroup
300

 70
     1
 71
     1
  0
GROUP
  5
DAAE
102
{ACAD_REACTORS
330
D
102
}
100
AcDbGroup
300

 70
     1
 71
     1
  0
GROUP
  5
DAAF
102
{ACAD_REACTORS
330
D
102
}
100
AcDbGroup
300

 70
     1
 71
     1
  0
GROUP
  5
D3CA
102
{ACAD_REACTORS
330
D
102
}
100
AcDbGroup
300

 70
     3
 71
     1
  0
GROUP
  5
DAB0
102
{ACAD_REACTORS
330
D
102
}
100
AcDbGroup
300

 70
     1
 71
     1
  0
GROUP
  5
D372
102
{ACAD_REACTORS
330
D
102
}
100
AcDbGroup
300

 70
     1
 71
     1
  0
GROUP
  5
DAB1
102
{ACAD_REACTORS
330
D
102
}
100
AcDbGroup
300

 70
     1
 71
     1
  0
GROUP
  5
D34E
102
{ACAD_REACTORS
330
D
102
}
100
AcDbGroup
300

 70
     1
 71
     1
  0
GROUP
  5
D455
102
{ACAD_REACTORS
330
D
102
}
100
AcDbGroup
300

 70
     3
 71
     1
  0
GROUP
  5
D4A1
102
{ACAD_REACTORS
330
D
102
}
100
AcDbGroup
300

 70
     1
 71
     1
  0
GROUP
  5
DAB2
102
{ACAD_REACTORS
330
D
102
}
100
AcDbGroup
300

 70
     1
 71
     1
  0
GROUP
  5
D462
102
{ACAD_REACTORS
330
D
102
}
100
AcDbGroup
300

 70
     3
 71
     1
  0
GROUP
  5
DAB3
102
{ACAD_REACTORS
330
D
102
}
100
AcDbGroup
300

 70
     1
 71
     1
  0
GROUP
  5
DAB4
102
{ACAD_REACTORS
330
D
102
}
100
AcDbGroup
300

 70
     1
 71
     1
  0
GROUP
  5
DAB5
102
{ACAD_REACTORS
330
D
102
}
100
AcDbGroup
300

 70
     1
 71
     1
  0
GROUP
  5
DAB6
102
{ACAD_REACTORS
330
D
102
}
100
AcDbGroup
300

 70
     1
 71
     1
  0
GROUP
  5
DAB7
102
{ACAD_REACTORS
330
D
102
}
100
AcDbGroup
300

 70
     1
 71
     1
  0
GROUP
  5
DAB8
102
{ACAD_REACTORS
330
D
102
}
100
AcDbGroup
300

 70
     1
 71
     1
  0
GROUP
  5
D3CB
102
{ACAD_REACTORS
330
D
102
}
100
AcDbGroup
300

 70
     3
 71
     1
  0
GROUP
  5
DAB9
102
{ACAD_REACTORS
330
D
102
}
100
AcDbGroup
300

 70
     1
 71
     1
  0
GROUP
  5
D4A2
102
{ACAD_REACTORS
330
D
102
}
100
AcDbGroup
300

 70
     1
 71
     1
  0
GROUP
  5
DABA
102
{ACAD_REACTORS
330
D
102
}
100
AcDbGroup
300

 70
     1
 71
     1
  0
GROUP
  5
D41A
102
{ACAD_REACTORS
330
D
102
}
100
AcDbGroup
300

 70
     1
 71
     1
  0
GROUP
  5
D3B8
102
{ACAD_REACTORS
330
D
102
}
100
AcDbGroup
300

 70
     3
 71
     1
  0
GROUP
  5
D373
102
{ACAD_REACTORS
330
D
102
}
100
AcDbGroup
300

 70
     1
 71
     1
  0
GROUP
  5
DABB
102
{ACAD_REACTORS
330
D
102
}
100
AcDbGroup
300

 70
     1
 71
     1
  0
GROUP
  5
DABC
102
{ACAD_REACTORS
330
D
102
}
100
AcDbGroup
300

 70
     1
 71
     1
  0
GROUP
  5
DABD
102
{ACAD_REACTORS
330
D
102
}
100
AcDbGroup
300

 70
     1
 71
     1
  0
GROUP
  5
DABE
102
{ACAD_REACTORS
330
D
102
}
100
AcDbGroup
300

 70
     1
 71
     1
  0
GROUP
  5
DABF
102
{ACAD_REACTORS
330
D
102
}
100
AcDbGroup
300

 70
     1
 71
     1
  0
GROUP
  5
DAC0
102
{ACAD_REACTORS
330
D
102
}
100
AcDbGroup
300

 70
     1
 71
     1
  0
GROUP
  5
D4A3
102
{ACAD_REACTORS
330
D
102
}
100
AcDbGroup
300

 70
     3
 71
     1
  0
GROUP
  5
DAC1
102
{ACAD_REACTORS
330
D
102
}
100
AcDbGroup
300

 70
     1
 71
     1
  0
GROUP
  5
D3CC
102
{ACAD_REACTORS
330
D
102
}
100
AcDbGroup
300

 70
     3
 71
     1
  0
GROUP
  5
DAC2
102
{ACAD_REACTORS
330
D
102
}
100
AcDbGroup
300

 70
     1
 71
     1
  0
GROUP
  5
D450
102
{ACAD_REACTORS
330
D
102
}
100
AcDbGroup
300

 70
     1
 71
     1
  0
GROUP
  5
D463
102
{ACAD_REACTORS
330
D
102
}
100
AcDbGroup
300

 70
     3
 71
     1
  0
GROUP
  5
D41B
102
{ACAD_REACTORS
330
D
102
}
100
AcDbGroup
300

 70
     1
 71
     1
  0
GROUP
  5
DAC3
102
{ACAD_REACTORS
330
D
102
}
100
AcDbGroup
300

 70
     1
 71
     1
  0
GROUP
  5
DAC4
102
{ACAD_REACTORS
330
D
102
}
100
AcDbGroup
300

 70
     1
 71
     1
  0
GROUP
  5
D374
102
{ACAD_REACTORS
330
D
102
}
100
AcDbGroup
300

 70
     1
 71
     1
  0
GROUP
  5
DAC5
102
{ACAD_REACTORS
330
D
102
}
100
AcDbGroup
300

 70
     1
 71
     1
  0
GROUP
  5
D4A4
102
{ACAD_REACTORS
330
D
102
}
100
AcDbGroup
300

 70
     1
 71
     1
  0
GROUP
  5
DAC6
102
{ACAD_REACTORS
330
D
102
}
100
AcDbGroup
300

 70
     1
 71
     1
  0
GROUP
  5
DAC7
102
{ACAD_REACTORS
330
D
102
}
100
AcDbGroup
300

 70
     1
 71
     1
  0
GROUP
  5
DAC8
102
{ACAD_REACTORS
330
D
102
}
100
AcDbGroup
300

 70
     1
 71
     1
  0
GROUP
  5
DAC9
102
{ACAD_REACTORS
330
D
102
}
100
AcDbGroup
300

 70
     1
 71
     1
  0
GROUP
  5
DACA
102
{ACAD_REACTORS
330
D
102
}
100
AcDbGroup
300

 70
     1
 71
     1
  0
GROUP
  5
D464
102
{ACAD_REACTORS
330
D
102
}
100
AcDbGroup
300

 70
     3
 71
     1
  0
GROUP
  5
D3CD
102
{ACAD_REACTORS
330
D
102
}
100
AcDbGroup
300

 70
     3
 71
     1
  0
GROUP
  5
D41C
102
{ACAD_REACTORS
330
D
102
}
100
AcDbGroup
300

 70
     1
 71
     1
  0
GROUP
  5
DACB
102
{ACAD_REACTORS
330
D
102
}
100
AcDbGroup
300

 70
     1
 71
     1
  0
GROUP
  5
DACC
102
{ACAD_REACTORS
330
D
102
}
100
AcDbGroup
300

 70
     1
 71
     1
  0
GROUP
  5
D457
102
{ACAD_REACTORS
330
D
102
}
100
AcDbGroup
300

 70
     3
 71
     1
  0
GROUP
  5
DACD
102
{ACAD_REACTORS
330
D
102
}
100
AcDbGroup
300

 70
     1
 71
     1
  0
GROUP
  5
DACE
102
{ACAD_REACTORS
330
D
102
}
100
AcDbGroup
300

 70
     1
 71
     1
  0
GROUP
  5
D348
102
{ACAD_REACTORS
330
D
102
}
100
AcDbGroup
300

 70
     1
 71
     1
  0
GROUP
  5
D375
102
{ACAD_REACTORS
330
D
102
}
100
AcDbGroup
300

 70
     3
 71
     1
  0
GROUP
  5
DACF
102
{ACAD_REACTORS
330
D
102
}
100
AcDbGroup
300

 70
     1
 71
     1
  0
GROUP
  5
DAD0
102
{ACAD_REACTORS
330
D
102
}
100
AcDbGroup
300

 70
     1
 71
     1
  0
GROUP
  5
D360
102
{ACAD_REACTORS
330
D
102
}
100
AcDbGroup
300

 70
     1
 71
     1
  0
GROUP
  5
DAD1
102
{ACAD_REACTORS
330
D
102
}
100
AcDbGroup
300

 70
     1
 71
     1
  0
GROUP
  5
DAD2
102
{ACAD_REACTORS
330
D
102
}
100
AcDbGroup
300

 70
     1
 71
     1
  0
GROUP
  5
D41D
102
{ACAD_REACTORS
330
D
102
}
100
AcDbGroup
300

 70
     1
 71
     1
  0
GROUP
  5
D4A5
102
{ACAD_REACTORS
330
D
102
}
100
AcDbGroup
300

 70
     1
 71
     1
  0
GROUP
  5
D3CE
102
{ACAD_REACTORS
330
D
102
}
100
AcDbGroup
300

 70
     1
 71
     1
  0
GROUP
  5
DAD3
102
{ACAD_REACTORS
330
D
102
}
100
AcDbGroup
300

 70
     1
 71
     1
  0
GROUP
  5
DAD4
102
{ACAD_REACTORS
330
D
102
}
100
AcDbGroup
300

 70
     1
 71
     1
  0
GROUP
  5
DAD5
102
{ACAD_REACTORS
330
D
102
}
100
AcDbGroup
300

 70
     1
 71
     1
  0
GROUP
  5
DAD6
102
{ACAD_REACTORS
330
D
102
}
100
AcDbGroup
300

 70
     1
 71
     1
  0
GROUP
  5
DAD7
102
{ACAD_REACTORS
330
D
102
}
100
AcDbGroup
300

 70
     1
 71
     1
  0
GROUP
  5
DAD8
102
{ACAD_REACTORS
330
D
102
}
100
AcDbGroup
300

 70
     1
 71
     1
  0
GROUP
  5
D465
102
{ACAD_REACTORS
330
D
102
}
100
AcDbGroup
300

 70
     3
 71
     1
  0
GROUP
  5
D376
102
{ACAD_REACTORS
330
D
102
}
100
AcDbGroup
300

 70
     3
 71
     1
  0
GROUP
  5
DAD9
102
{ACAD_REACTORS
330
D
102
}
100
AcDbGroup
300

 70
     1
 71
     1
  0
GROUP
  5
D4A6
102
{ACAD_REACTORS
330
D
102
}
100
AcDbGroup
300

 70
     1
 71
     1
  0
GROUP
  5
DADA
102
{ACAD_REACTORS
330
D
102
}
100
AcDbGroup
300

 70
     1
 71
     1
  0
GROUP
  5
D356
102
{ACAD_REACTORS
330
D
102
}
100
AcDbGroup
300

 70
     1
 71
     1
  0
GROUP
  5
D41E
102
{ACAD_REACTORS
330
D
102
}
100
AcDbGroup
300

 70
     1
 71
     1
  0
GROUP
  5
DADB
102
{ACAD_REACTORS
330
D
102
}
100
AcDbGroup
300

 70
     1
 71
     1
  0
GROUP
  5
D351
102
{ACAD_REACTORS
330
D
102
}
100
AcDbGroup
300

 70
     1
 71
     1
  0
GROUP
  5
DADC
102
{ACAD_REACTORS
330
D
102
}
100
AcDbGroup
300

 70
     1
 71
     1
  0
GROUP
  5
DADD
102
{ACAD_REACTORS
330
D
102
}
100
AcDbGroup
300

 70
     1
 71
     1
  0
GROUP
  5
DADE
102
{ACAD_REACTORS
330
D
102
}
100
AcDbGroup
300

 70
     1
 71
     1
  0
GROUP
  5
D466
102
{ACAD_REACTORS
330
D
102
}
100
AcDbGroup
300

 70
     3
 71
     1
  0
GROUP
  5
DADF
102
{ACAD_REACTORS
330
D
102
}
100
AcDbGroup
300

 70
     1
 71
     1
  0
GROUP
  5
D4A7
102
{ACAD_REACTORS
330
D
102
}
100
AcDbGroup
300

 70
     1
 71
     1
  0
GROUP
  5
DAE0
102
{ACAD_REACTORS
330
D
102
}
100
AcDbGroup
300

 70
     1
 71
     1
  0
GROUP
  5
DAE1
102
{ACAD_REACTORS
330
D
102
}
100
AcDbGroup
300

 70
     1
 71
     1
  0
GROUP
  5
DAE2
102
{ACAD_REACTORS
330
D
102
}
100
AcDbGroup
300

 70
     1
 71
     1
  0
GROUP
  5
D377
102
{ACAD_REACTORS
330
D
102
}
100
AcDbGroup
300

 70
     3
 71
     1
  0
GROUP
  5
D359
102
{ACAD_REACTORS
330
D
102
}
100
AcDbGroup
300

 70
     1
 71
     1
  0
GROUP
  5
DAE3
102
{ACAD_REACTORS
330
D
102
}
100
AcDbGroup
300

 70
     1
 71
     1
  0
GROUP
  5
DAE4
102
{ACAD_REACTORS
330
D
102
}
100
AcDbGroup
300

 70
     1
 71
     1
  0
GROUP
  5
D3CF
102
{ACAD_REACTORS
330
D
102
}
100
AcDbGroup
300

 70
     3
 71
     1
  0
GROUP
  5
DAE5
102
{ACAD_REACTORS
330
D
102
}
100
AcDbGroup
300

 70
     1
 71
     1
  0
GROUP
  5
D3AF
102
{ACAD_REACTORS
330
D
102
}
100
AcDbGroup
300

 70
     3
 71
     1
  0
GROUP
  5
D4A8
102
{ACAD_REACTORS
330
D
102
}
100
AcDbGroup
300

 70
     1
 71
     1
  0
GROUP
  5
DAE6
102
{ACAD_REACTORS
330
D
102
}
100
AcDbGroup
300

 70
     1
 71
     1
  0
GROUP
  5
DAE7
102
{ACAD_REACTORS
330
D
102
}
100
AcDbGroup
300

 70
     1
 71
     1
  0
GROUP
  5
DAE8
102
{ACAD_REACTORS
330
D
102
}
100
AcDbGroup
300

 70
     1
 71
     1
  0
GROUP
  5
DAE9
102
{ACAD_REACTORS
330
D
102
}
100
AcDbGroup
300

 70
     1
 71
     1
  0
GROUP
  5
DAEA
102
{ACAD_REACTORS
330
D
102
}
100
AcDbGroup
300

 70
     1
 71
     1
  0
GROUP
  5
DAEB
102
{ACAD_REACTORS
330
D
102
}
100
AcDbGroup
300

 70
     1
 71
     1
  0
GROUP
  5
D41F
102
{ACAD_REACTORS
330
D
102
}
100
AcDbGroup
300

 70
     1
 71
     1
  0
GROUP
  5
DAEC
102
{ACAD_REACTORS
330
D
102
}
100
AcDbGroup
300

 70
     1
 71
     1
  0
GROUP
  5
D378
102
{ACAD_REACTORS
330
D
102
}
100
AcDbGroup
300

 70
     3
 71
     1
  0
GROUP
  5
DAED
102
{ACAD_REACTORS
330
D
102
}
100
AcDbGroup
300

 70
     1
 71
     1
  0
GROUP
  5
D40E
102
{ACAD_REACTORS
330
D
102
}
100
AcDbGroup
300

 70
     1
 71
     1
  0
GROUP
  5
D467
102
{ACAD_REACTORS
330
D
102
}
100
AcDbGroup
300

 70
     1
 71
     1
  0
GROUP
  5
D3D0
102
{ACAD_REACTORS
330
D
102
}
100
AcDbGroup
300

 70
     3
 71
     1
  0
GROUP
  5
DAEE
102
{ACAD_REACTORS
330
D
102
}
100
AcDbGroup
300

 70
     1
 71
     1
  0
GROUP
  5
DAEF
102
{ACAD_REACTORS
330
D
102
}
100
AcDbGroup
300

 70
     1
 71
     1
  0
GROUP
  5
DAF0
102
{ACAD_REACTORS
330
D
102
}
100
AcDbGroup
300

 70
     1
 71
     1
  0
GROUP
  5
DAF1
102
{ACAD_REACTORS
330
D
102
}
100
AcDbGroup
300

 70
     1
 71
     1
  0
GROUP
  5
DAF2
102
{ACAD_REACTORS
330
D
102
}
100
AcDbGroup
300

 70
     1
 71
     1
  0
GROUP
  5
DAF3
102
{ACAD_REACTORS
330
D
102
}
100
AcDbGroup
300

 70
     1
 71
     1
  0
GROUP
  5
D420
102
{ACAD_REACTORS
330
D
102
}
100
AcDbGroup
300

 70
     1
 71
     1
  0
GROUP
  5
DAF4
102
{ACAD_REACTORS
330
D
102
}
100
AcDbGroup
300

 70
     1
 71
     1
  0
GROUP
  5
D497
102
{ACAD_REACTORS
330
D
102
}
100
AcDbGroup
300

 70
     1
 71
     1
  0
GROUP
  5
D4A9
102
{ACAD_REACTORS
330
D
102
}
100
AcDbGroup
300

 70
     1
 71
     1
  0
GROUP
  5
DAF5
102
{ACAD_REACTORS
330
D
102
}
100
AcDbGroup
300

 70
     1
 71
     1
  0
GROUP
  5
D468
102
{ACAD_REACTORS
330
D
102
}
100
AcDbGroup
300

 70
     3
 71
     1
  0
GROUP
  5
DAF6
102
{ACAD_REACTORS
330
D
102
}
100
AcDbGroup
300

 70
     1
 71
     1
  0
GROUP
  5
D379
102
{ACAD_REACTORS
330
D
102
}
100
AcDbGroup
300

 70
     3
 71
     1
  0
GROUP
  5
D3D1
102
{ACAD_REACTORS
330
D
102
}
100
AcDbGroup
300

 70
     3
 71
     1
  0
GROUP
  5
DAF7
102
{ACAD_REACTORS
330
D
102
}
100
AcDbGroup
300

 70
     1
 71
     1
  0
GROUP
  5
DAF8
102
{ACAD_REACTORS
330
D
102
}
100
AcDbGroup
300

 70
     1
 71
     1
  0
GROUP
  5
DAF9
102
{ACAD_REACTORS
330
D
102
}
100
AcDbGroup
300

 70
     1
 71
     1
  0
GROUP
  5
DAFA
102
{ACAD_REACTORS
330
D
102
}
100
AcDbGroup
300

 70
     1
 71
     1
  0
GROUP
  5
DAFB
102
{ACAD_REACTORS
330
D
102
}
100
AcDbGroup
300

 70
     1
 71
     1
  0
GROUP
  5
D4AA
102
{ACAD_REACTORS
330
D
102
}
100
AcDbGroup
300

 70
     1
 71
     1
  0
GROUP
  5
D421
102
{ACAD_REACTORS
330
D
102
}
100
AcDbGroup
300

 70
     1
 71
     1
  0
GROUP
  5
DAFC
102
{ACAD_REACTORS
330
D
102
}
100
AcDbGroup
300

 70
     1
 71
     1
  0
GROUP
  5
D469
102
{ACAD_REACTORS
330
D
102
}
100
AcDbGroup
300

 70
     1
 71
     1
  0
GROUP
  5
DAFD
102
{ACAD_REACTORS
330
D
102
}
100
AcDbGroup
300

 70
     1
 71
     1
  0
GROUP
  5
DAFE
102
{ACAD_REACTORS
330
D
102
}
100
AcDbGroup
300

 70
     1
 71
     1
  0
GROUP
  5
DAFF
102
{ACAD_REACTORS
330
D
102
}
100
AcDbGroup
300

 70
     1
 71
     1
  0
GROUP
  5
DB00
102
{ACAD_REACTORS
330
D
102
}
100
AcDbGroup
300

 70
     1
 71
     1
  0
GROUP
  5
D3A9
102
{ACAD_REACTORS
330
D
102
}
100
AcDbGroup
300

 70
     3
 71
     1
  0
GROUP
  5
D3D2
102
{ACAD_REACTORS
330
D
102
}
100
AcDbGroup
300

 70
     3
 71
     1
  0
GROUP
  5
D37A
102
{ACAD_REACTORS
330
D
102
}
100
AcDbGroup
300

 70
     1
 71
     1
  0
GROUP
  5
D3BF
102
{ACAD_REACTORS
330
D
102
}
100
AcDbGroup
300

 70
     3
 71
     1
  0
GROUP
  5
DB01
102
{ACAD_REACTORS
330
D
102
}
100
AcDbGroup
300

 70
     1
 71
     1
  0
GROUP
  5
DB02
102
{ACAD_REACTORS
330
D
102
}
100
AcDbGroup
300

 70
     1
 71
     1
  0
GROUP
  5
D422
102
{ACAD_REACTORS
330
D
102
}
100
AcDbGroup
300

 70
     3
 71
     1
  0
GROUP
  5
D46A
102
{ACAD_REACTORS
330
D
102
}
100
AcDbGroup
300

 70
     3
 71
     1
  0
GROUP
  5
DB03
102
{ACAD_REACTORS
330
D
102
}
100
AcDbGroup
300

 70
     1
 71
     1
  0
GROUP
  5
DB04
102
{ACAD_REACTORS
330
D
102
}
100
AcDbGroup
300

 70
     1
 71
     1
  0
GROUP
  5
DB05
102
{ACAD_REACTORS
330
D
102
}
100
AcDbGroup
300

 70
     1
 71
     1
  0
GROUP
  5
DB06
102
{ACAD_REACTORS
330
D
102
}
100
AcDbGroup
300

 70
     1
 71
     1
  0
GROUP
  5
DB07
102
{ACAD_REACTORS
330
D
102
}
100
AcDbGroup
300

 70
     1
 71
     1
  0
GROUP
  5
DB08
102
{ACAD_REACTORS
330
D
102
}
100
AcDbGroup
300

 70
     1
 71
     1
  0
GROUP
  5
D367
102
{ACAD_REACTORS
330
D
102
}
100
AcDbGroup
300

 70
     1
 71
     1
  0
GROUP
  5
DB09
102
{ACAD_REACTORS
330
D
102
}
100
AcDbGroup
300

 70
     1
 71
     1
  0
GROUP
  5
D3D3
102
{ACAD_REACTORS
330
D
102
}
100
AcDbGroup
300

 70
     3
 71
     1
  0
GROUP
  5
DB0A
102
{ACAD_REACTORS
330
D
102
}
100
AcDbGroup
300

 70
     1
 71
     1
  0
GROUP
  5
D37B
102
{ACAD_REACTORS
330
D
102
}
100
AcDbGroup
300

 70
     1
 71
     1
  0
GROUP
  5
D3B6
102
{ACAD_REACTORS
330
D
102
}
100
AcDbGroup
300

 70
     3
 71
     1
  0
GROUP
  5
D46B
102
{ACAD_REACTORS
330
D
102
}
100
AcDbGroup
300

 70
     3
 71
     1
  0
GROUP
  5
D3B1
102
{ACAD_REACTORS
330
D
102
}
100
AcDbGroup
300

 70
     3
 71
     1
  0
GROUP
  5
DB0B
102
{ACAD_REACTORS
330
D
102
}
100
AcDbGroup
300

 70
     1
 71
     1
  0
GROUP
  5
DB0C
102
{ACAD_REACTORS
330
D
102
}
100
AcDbGroup
300

 70
     1
 71
     1
  0
GROUP
  5
DB0D
102
{ACAD_REACTORS
330
D
102
}
100
AcDbGroup
300

 70
     1
 71
     1
  0
GROUP
  5
D4AB
102
{ACAD_REACTORS
330
D
102
}
100
AcDbGroup
300

 70
     1
 71
     1
  0
GROUP
  5
DB0E
102
{ACAD_REACTORS
330
D
102
}
100
AcDbGroup
300

 70
     1
 71
     1
  0
GROUP
  5
DB0F
102
{ACAD_REACTORS
330
D
102
}
100
AcDbGroup
300

 70
     1
 71
     1
  0
GROUP
  5
DB10
102
{ACAD_REACTORS
330
D
102
}
100
AcDbGroup
300

 70
     1
 71
     1
  0
GROUP
  5
DB11
102
{ACAD_REACTORS
330
D
102
}
100
AcDbGroup
300

 70
     1
 71
     1
  0
GROUP
  5
D3D4
102
{ACAD_REACTORS
330
D
102
}
100
AcDbGroup
300

 70
     3
 71
     1
  0
GROUP
  5
D37C
102
{ACAD_REACTORS
330
D
102
}
100
AcDbGroup
300

 70
     1
 71
     1
  0
GROUP
  5
D3B9
102
{ACAD_REACTORS
330
D
102
}
100
AcDbGroup
300

 70
     3
 71
     1
  0
GROUP
  5
DB70
102
{ACAD_REACTORS
330
D
102
}
100
AcDbGroup
300

 70
     1
 71
     1
  0
GROUP
  5
D423
102
{ACAD_REACTORS
330
D
102
}
100
AcDbGroup
300

 70
     3
 71
     1
  0
GROUP
  5
DB71
102
{ACAD_REACTORS
330
D
102
}
100
AcDbGroup
300

 70
     1
 71
     1
  0
GROUP
  5
D407
102
{ACAD_REACTORS
330
D
102
}
100
AcDbGroup
300

 70
     1
 71
     1
  0
GROUP
  5
DB75
102
{ACAD_REACTORS
330
D
102
}
100
AcDbGroup
300

 70
     1
 71
     1
  0
GROUP
  5
DB76
102
{ACAD_REACTORS
330
D
102
}
100
AcDbGroup
300

 70
     1
 71
     1
  0
GROUP
  5
DB7A
102
{ACAD_REACTORS
330
D
102
}
100
AcDbGroup
300

 70
     1
 71
     1
  0
GROUP
  5
DB7B
102
{ACAD_REACTORS
330
D
102
}
100
AcDbGroup
300

 70
     1
 71
     1
  0
GROUP
  5
DB7F
102
{ACAD_REACTORS
330
D
102
}
100
AcDbGroup
300

 70
     1
 71
     1
  0
GROUP
  5
D3D5
102
{ACAD_REACTORS
330
D
102
}
100
AcDbGroup
300

 70
     3
 71
     1
  0
GROUP
  5
DB80
102
{ACAD_REACTORS
330
D
102
}
100
AcDbGroup
300

 70
     1
 71
     1
  0
GROUP
  5
D46C
102
{ACAD_REACTORS
330
D
102
}
100
AcDbGroup
300

 70
     3
 71
     1
  0
GROUP
  5
DB84
102
{ACAD_REACTORS
330
D
102
}
100
AcDbGroup
300

 70
     1
 71
     1
  0
GROUP
  5
DB85
102
{ACAD_REACTORS
330
D
102
}
100
AcDbGroup
300

 70
     1
 71
     1
  0
GROUP
  5
D4AC
102
{ACAD_REACTORS
330
D
102
}
100
AcDbGroup
300

 70
     1
 71
     1
  0
GROUP
  5
D424
102
{ACAD_REACTORS
330
D
102
}
100
AcDbGroup
300

 70
     1
 71
     1
  0
GROUP
  5
D37D
102
{ACAD_REACTORS
330
D
102
}
100
AcDbGroup
300

 70
     1
 71
     1
  0
GROUP
  5
DB89
102
{ACAD_REACTORS
330
D
102
}
100
AcDbGroup
300

 70
     1
 71
     1
  0
GROUP
  5
DB8A
102
{ACAD_REACTORS
330
D
102
}
100
AcDbGroup
300

 70
     1
 71
     1
  0
GROUP
  5
D3D6
102
{ACAD_REACTORS
330
D
102
}
100
AcDbGroup
300

 70
     3
 71
     1
  0
GROUP
  5
D37E
102
{ACAD_REACTORS
330
D
102
}
100
AcDbGroup
300

 70
     3
 71
     1
  0
GROUP
  5
DBA2
102
{ACAD_REACTORS
330
D
102
}
100
AcDbGroup
300

 70
     1
 71
     1
  0
GROUP
  5
D425
102
{ACAD_REACTORS
330
D
102
}
100
AcDbGroup
300

 70
     3
 71
     1
  0
GROUP
  5
D46D
102
{ACAD_REACTORS
330
D
102
}
100
AcDbGroup
300

 70
     3
 71
     1
  0
GROUP
  5
DBA3
102
{ACAD_REACTORS
330
D
102
}
100
AcDbGroup
300

 70
     1
 71
     1
  0
GROUP
  5
D4AD
102
{ACAD_REACTORS
330
D
102
}
100
AcDbGroup
300

 70
     1
 71
     1
  0
GROUP
  5
DBA7
102
{ACAD_REACTORS
330
D
102
}
100
AcDbGroup
300

 70
     1
 71
     1
  0
GROUP
  5
DBA8
102
{ACAD_REACTORS
330
D
102
}
100
AcDbGroup
300

 70
     1
 71
     1
  0
GROUP
  5
DBAC
102
{ACAD_REACTORS
330
D
102
}
100
AcDbGroup
300

 70
     1
 71
     1
  0
GROUP
  5
D3D7
102
{ACAD_REACTORS
330
D
102
}
100
AcDbGroup
300

 70
     3
 71
     1
  0
GROUP
  5
DBAD
102
{ACAD_REACTORS
330
D
102
}
100
AcDbGroup
300

 70
     1
 71
     1
  0
GROUP
  5
DBC6
102
{ACAD_REACTORS
330
D
102
}
100
AcDbGroup
300

 70
     1
 71
     1
  0
GROUP
  5
DBCD
102
{ACAD_REACTORS
330
D
102
}
100
AcDbGroup
300

 70
     1
 71
     1
  0
GROUP
  5
D349
102
{ACAD_REACTORS
330
D
102
}
100
AcDbGroup
300

 70
     1
 71
     1
  0
GROUP
  5
D37F
102
{ACAD_REACTORS
330
D
102
}
100
AcDbGroup
300

 70
     3
 71
     1
  0
GROUP
  5
D46E
102
{ACAD_REACTORS
330
D
102
}
100
AcDbGroup
300

 70
     3
 71
     1
  0
GROUP
  5
D4AE
102
{ACAD_REACTORS
330
D
102
}
100
AcDbGroup
300

 70
     3
 71
     1
  0
GROUP
  5
D401
102
{ACAD_REACTORS
330
D
102
}
100
AcDbGroup
300

 70
     1
 71
     1
  0
GROUP
  5
D426
102
{ACAD_REACTORS
330
D
102
}
100
AcDbGroup
300

 70
     1
 71
     1
  0
GROUP
  5
D3D8
102
{ACAD_REACTORS
330
D
102
}
100
AcDbGroup
300

 70
     3
 71
     1
  0
GROUP
  5
DC29
102
{ACAD_REACTORS
330
D
102
}
100
AcDbGroup
300

 70
     1
 71
     1
  0
GROUP
  5
DC2C
102
{ACAD_REACTORS
330
D
102
}
100
AcDbGroup
300

 70
     1
 71
     1
  0
GROUP
  5
DC2D
102
{ACAD_REACTORS
330
D
102
}
100
AcDbGroup
300

 70
     1
 71
     1
  0
GROUP
  5
DC33
102
{ACAD_REACTORS
330
D
102
}
100
AcDbGroup
300

 70
     1
 71
     1
  0
GROUP
  5
D380
102
{ACAD_REACTORS
330
D
102
}
100
AcDbGroup
300

 70
     3
 71
     1
  0
GROUP
  5
D352
102
{ACAD_REACTORS
330
D
102
}
100
AcDbGroup
300

 70
     1
 71
     1
  0
GROUP
  5
D381
102
{ACAD_REACTORS
330
D
102
}
100
AcDbGroup
300

 70
     3
 71
     1
  0
GROUP
  5
D4AF
102
{ACAD_REACTORS
330
D
102
}
100
AcDbGroup
300

 70
     1
 71
     1
  0
GROUP
  5
D346
102
{ACAD_REACTORS
330
D
102
}
100
AcDbGroup
300

 70
     1
 71
     1
  0
GROUP
  5
D3D9
102
{ACAD_REACTORS
330
D
102
}
100
AcDbGroup
300

 70
     3
 71
     1
  0
GROUP
  5
DC6D
102
{ACAD_REACTORS
330
D
102
}
100
AcDbGroup
300

 70
     1
 71
     1
  0
GROUP
  5
D427
102
{ACAD_REACTORS
330
D
102
}
100
AcDbGroup
300

 70
     1
 71
     1
  0
GROUP
  5
DC6E
102
{ACAD_REACTORS
330
D
102
}
100
AcDbGroup
300

 70
     1
 71
     1
  0
GROUP
  5
D382
102
{ACAD_REACTORS
330
D
102
}
100
AcDbGroup
300

 70
     3
 71
     1
  0
GROUP
  5
D3DA
102
{ACAD_REACTORS
330
D
102
}
100
AcDbGroup
300

 70
     3
 71
     1
  0
GROUP
  5
D383
102
{ACAD_REACTORS
330
D
102
}
100
AcDbGroup
300

 70
     3
 71
     1
  0
GROUP
  5
D3AA
102
{ACAD_REACTORS
330
D
102
}
100
AcDbGroup
300

 70
     3
 71
     1
  0
GROUP
  5
D428
102
{ACAD_REACTORS
330
D
102
}
100
AcDbGroup
300

 70
     1
 71
     1
  0
GROUP
  5
D40C
102
{ACAD_REACTORS
330
D
102
}
100
AcDbGroup
300

 70
     3
 71
     1
  0
GROUP
  5
D4B0
102
{ACAD_REACTORS
330
D
102
}
100
AcDbGroup
300

 70
     1
 71
     1
  0
GROUP
  5
D3DB
102
{ACAD_REACTORS
330
D
102
}
100
AcDbGroup
300

 70
     3
 71
     1
  0
GROUP
  5
D409
102
{ACAD_REACTORS
330
D
102
}
100
AcDbGroup
300

 70
     1
 71
     1
  0
GROUP
  5
D3DC
102
{ACAD_REACTORS
330
D
102
}
100
AcDbGroup
300

 70
     3
 71
     1
  0
GROUP
  5
D384
102
{ACAD_REACTORS
330
D
102
}
100
AcDbGroup
300

 70
     1
 71
     1
  0
GROUP
  5
D35A
102
{ACAD_REACTORS
330
D
102
}
100
AcDbGroup
300

 70
     1
 71
     1
  0
GROUP
  5
D3DD
102
{ACAD_REACTORS
330
D
102
}
100
AcDbGroup
300

 70
     3
 71
     1
  0
GROUP
  5
D385
102
{ACAD_REACTORS
330
D
102
}
100
AcDbGroup
300

 70
     3
 71
     1
  0
GROUP
  5
D3DE
102
{ACAD_REACTORS
330
D
102
}
100
AcDbGroup
300

 70
     3
 71
     1
  0
GROUP
  5
D429
102
{ACAD_REACTORS
330
D
102
}
100
AcDbGroup
300

 70
     1
 71
     1
  0
GROUP
  5
D386
102
{ACAD_REACTORS
330
D
102
}
100
AcDbGroup
300

 70
     3
 71
     1
  0
GROUP
  5
D40F
102
{ACAD_REACTORS
330
D
102
}
100
AcDbGroup
300

 70
     1
 71
     1
  0
GROUP
  5
D3DF
102
{ACAD_REACTORS
330
D
102
}
100
AcDbGroup
300

 70
     1
 71
     1
  0
GROUP
  5
D387
102
{ACAD_REACTORS
330
D
102
}
100
AcDbGroup
300

 70
     3
 71
     1
  0
GROUP
  5
D361
102
{ACAD_REACTORS
330
D
102
}
100
AcDbGroup
300

 70
     1
 71
     1
  0
GROUP
  5
D42A
102
{ACAD_REACTORS
330
D
102
}
100
AcDbGroup
300

 70
     1
 71
     1
  0
GROUP
  5
DCF4
102
{ACAD_REACTORS
330
D
102
}
100
AcDbGroup
300

 70
     1
 71
     1
  0
GROUP
  5
DCF5
102
{ACAD_REACTORS
330
D
102
}
100
AcDbGroup
300

 70
     1
 71
     1
  0
GROUP
  5
DCF9
102
{ACAD_REACTORS
330
D
102
}
100
AcDbGroup
300

 70
     1
 71
     1
  0
GROUP
  5
DCFA
102
{ACAD_REACTORS
330
D
102
}
100
AcDbGroup
300

 70
     1
 71
     1
  0
GROUP
  5
D3E0
102
{ACAD_REACTORS
330
D
102
}
100
AcDbGroup
300

 70
     1
 71
     1
  0
GROUP
  5
D388
102
{ACAD_REACTORS
330
D
102
}
100
AcDbGroup
300

 70
     1
 71
     1
  0
GROUP
  5
D4B1
102
{ACAD_REACTORS
330
D
102
}
100
AcDbGroup
300

 70
     1
 71
     1
  0
GROUP
  5
D42B
102
{ACAD_REACTORS
330
D
102
}
100
AcDbGroup
300

 70
     1
 71
     1
  0
GROUP
  5
D3E1
102
{ACAD_REACTORS
330
D
102
}
100
AcDbGroup
300

 70
     1
 71
     1
  0
GROUP
  5
D34A
102
{ACAD_REACTORS
330
D
102
}
100
AcDbGroup
300

 70
     1
 71
     1
  0
GROUP
  5
D46F
102
{ACAD_REACTORS
330
D
102
}
100
AcDbGroup
300

 70
     3
 71
     1
  0
GROUP
  5
D389
102
{ACAD_REACTORS
330
D
102
}
100
AcDbGroup
300

 70
     3
 71
     1
  0
GROUP
  5
D3E2
102
{ACAD_REACTORS
330
D
102
}
100
AcDbGroup
300

 70
     3
 71
     1
  0
GROUP
  5
D3B2
102
{ACAD_REACTORS
330
D
102
}
100
AcDbGroup
300

 70
     3
 71
     1
  0
GROUP
  5
DD35
102
{ACAD_REACTORS
330
D
102
}
100
AcDbGroup
300

 70
     1
 71
     1
  0
GROUP
  5
D38A
102
{ACAD_REACTORS
330
D
102
}
100
AcDbGroup
300

 70
     3
 71
     1
  0
GROUP
  5
D353
102
{ACAD_REACTORS
330
D
102
}
100
AcDbGroup
300

 70
     1
 71
     1
  0
GROUP
  5
D4B2
102
{ACAD_REACTORS
330
D
102
}
100
AcDbGroup
300

 70
     1
 71
     1
  0
GROUP
  5
D38B
102
{ACAD_REACTORS
330
D
102
}
100
AcDbGroup
300

 70
     3
 71
     1
  0
GROUP
  5
D38C
102
{ACAD_REACTORS
330
D
102
}
100
AcDbGroup
300

 70
     3
 71
     1
  0
GROUP
  5
D38D
102
{ACAD_REACTORS
330
D
102
}
100
AcDbGroup
300

 70
     3
 71
     1
  0
GROUP
  5
D38E
102
{ACAD_REACTORS
330
D
102
}
100
AcDbGroup
300

 70
     3
 71
     1
  0
GROUP
  5
D470
102
{ACAD_REACTORS
330
D
102
}
100
AcDbGroup
300

 70
     1
 71
     1
  0
GROUP
  5
D38F
102
{ACAD_REACTORS
330
D
102
}
100
AcDbGroup
300

 70
     3
 71
     1
  0
GROUP
  5
D3E3
102
{ACAD_REACTORS
330
D
102
}
100
AcDbGroup
300

 70
     3
 71
     1
  0
GROUP
  5
D42C
102
{ACAD_REACTORS
330
D
102
}
100
AcDbGroup
300

 70
     1
 71
     1
  0
GROUP
  5
D390
102
{ACAD_REACTORS
330
D
102
}
100
AcDbGroup
300

 70
     3
 71
     1
  0
GROUP
  5
D391
102
{ACAD_REACTORS
330
D
102
}
100
AcDbGroup
300

 70
     3
 71
     1
  0
GROUP
  5
D4B3
102
{ACAD_REACTORS
330
D
102
}
100
AcDbGroup
300

 70
     1
 71
     1
  0
GROUP
  5
D392
102
{ACAD_REACTORS
330
D
102
}
100
AcDbGroup
300

 70
     3
 71
     1
  0
GROUP
  5
D34B
102
{ACAD_REACTORS
330
D
102
}
100
AcDbGroup
300

 70
     1
 71
     1
  0
GROUP
  5
D393
102
{ACAD_REACTORS
330
D
102
}
100
AcDbGroup
300

 70
     3
 71
     1
  0
GROUP
  5
D394
102
{ACAD_REACTORS
330
D
102
}
100
AcDbGroup
300

 70
     1
 71
     1
  0
GROUP
  5
D395
102
{ACAD_REACTORS
330
D
102
}
100
AcDbGroup
300

 70
     1
 71
     1
  0
GROUP
  5
D35E
102
{ACAD_REACTORS
330
D
102
}
100
AcDbGroup
300

 70
     1
 71
     1
  0
GROUP
  5
D471
102
{ACAD_REACTORS
330
D
102
}
100
AcDbGroup
300

 70
     3
 71
     1
  0
GROUP
  5
D396
102
{ACAD_REACTORS
330
D
102
}
100
AcDbGroup
300

 70
     1
 71
     1
  0
GROUP
  5
D397
102
{ACAD_REACTORS
330
D
102
}
100
AcDbGroup
300

 70
     3
 71
     1
  0
GROUP
  5
D398
102
{ACAD_REACTORS
330
D
102
}
100
AcDbGroup
300

 70
     3
 71
     1
  0
GROUP
  5
D3A7
102
{ACAD_REACTORS
330
D
102
}
100
AcDbGroup
300

 70
     3
 71
     1
  0
GROUP
  5
D42D
102
{ACAD_REACTORS
330
D
102
}
100
AcDbGroup
300

 70
     1
 71
     1
  0
GROUP
  5
D3AB
102
{ACAD_REACTORS
330
D
102
}
100
AcDbGroup
300

 70
     3
 71
     1
  0
GROUP
  5
D3E4
102
{ACAD_REACTORS
330
D
102
}
100
AcDbGroup
300

 70
     3
 71
     1
  0
GROUP
  5
D399
102
{ACAD_REACTORS
330
D
102
}
100
AcDbGroup
300

 70
     3
 71
     1
  0
GROUP
  5
D39A
102
{ACAD_REACTORS
330
D
102
}
100
AcDbGroup
300

 70
     3
 71
     1
  0
GROUP
  5
D39B
102
{ACAD_REACTORS
330
D
102
}
100
AcDbGroup
300

 70
     3
 71
     1
  0
GROUP
  5
D39C
102
{ACAD_REACTORS
330
D
102
}
100
AcDbGroup
300

 70
     3
 71
     1
  0
GROUP
  5
D472
102
{ACAD_REACTORS
330
D
102
}
100
AcDbGroup
300

 70
     1
 71
     1
  0
GROUP
  5
D34C
102
{ACAD_REACTORS
330
D
102
}
100
AcDbGroup
300

 70
     1
 71
     1
  0
GROUP
  5
D39D
102
{ACAD_REACTORS
330
D
102
}
100
AcDbGroup
300

 70
     3
 71
     1
  0
GROUP
  5
D458
102
{ACAD_REACTORS
330
D
102
}
100
AcDbGroup
300

 70
     3
 71
     1
  0
GROUP
  5
D39E
102
{ACAD_REACTORS
330
D
102
}
100
AcDbGroup
300

 70
     3
 71
     1
  0
GROUP
  5
D39F
102
{ACAD_REACTORS
330
D
102
}
100
AcDbGroup
300

 70
     3
 71
     1
  0
GROUP
  5
D402
102
{ACAD_REACTORS
330
D
102
}
100
AcDbGroup
300

 70
     1
 71
     1
  0
GROUP
  5
D42E
102
{ACAD_REACTORS
330
D
102
}
100
AcDbGroup
300

 70
     3
 71
     1
  0
GROUP
  5
D3A0
102
{ACAD_REACTORS
330
D
102
}
100
AcDbGroup
300

 70
     3
 71
     1
  0
GROUP
  5
D3A1
102
{ACAD_REACTORS
330
D
102
}
100
AcDbGroup
300

 70
     3
 71
     1
  0
GROUP
  5
D3E5
102
{ACAD_REACTORS
330
D
102
}
100
AcDbGroup
300

 70
     3
 71
     1
  0
GROUP
  5
D3A2
102
{ACAD_REACTORS
330
D
102
}
100
AcDbGroup
300

 70
     1
 71
     1
  0
GROUP
  5
D473
102
{ACAD_REACTORS
330
D
102
}
100
AcDbGroup
300

 70
     3
 71
     1
  0
GROUP
  5
D3A3
102
{ACAD_REACTORS
330
D
102
}
100
AcDbGroup
300

 70
     3
 71
     1
  0
GROUP
  5
D3C0
102
{ACAD_REACTORS
330
D
102
}
100
AcDbGroup
300

 70
     3
 71
     1
  0
GROUP
  5
D3A4
102
{ACAD_REACTORS
330
D
102
}
100
AcDbGroup
300

 70
     3
 71
     1
  0
GROUP
  5
D3A5
102
{ACAD_REACTORS
330
D
102
}
100
AcDbGroup
300

 70
     3
 71
     1
  0
GROUP
  5
D3A6
102
{ACAD_REACTORS
330
D
102
}
100
AcDbGroup
300

 70
     3
 71
     1
  0
GROUP
  5
D3E6
102
{ACAD_REACTORS
330
D
102
}
100
AcDbGroup
300

 70
     3
 71
     1
  0
GROUP
  5
D3E7
102
{ACAD_REACTORS
330
D
102
}
100
AcDbGroup
300

 70
     3
 71
     1
  0
GROUP
  5
D42F
102
{ACAD_REACTORS
330
D
102
}
100
AcDbGroup
300

 70
     1
 71
     1
  0
GROUP
  5
D3E8
102
{ACAD_REACTORS
330
D
102
}
100
AcDbGroup
300

 70
     1
 71
     1
  0
GROUP
  5
D3E9
102
{ACAD_REACTORS
330
D
102
}
100
AcDbGroup
300

 70
     1
 71
     1
  0
GROUP
  5
D3EA
102
{ACAD_REACTORS
330
D
102
}
100
AcDbGroup
300

 70
     1
 71
     1
  0
GROUP
  5
D3BA
102
{ACAD_REACTORS
330
D
102
}
100
AcDbGroup
300

 70
     3
 71
     1
  0
GROUP
  5
D4B4
102
{ACAD_REACTORS
330
D
102
}
100
AcDbGroup
300

 70
     1
 71
     1
  0
GROUP
  5
D3EB
102
{ACAD_REACTORS
330
D
102
}
100
AcDbGroup
300

 70
     3
 71
     1
  0
GROUP
  5
D3EC
102
{ACAD_REACTORS
330
D
102
}
100
AcDbGroup
300

 70
     1
 71
     1
  0
GROUP
  5
D354
102
{ACAD_REACTORS
330
D
102
}
100
AcDbGroup
300

 70
     1
 71
     1
  0
GROUP
  5
D3AC
102
{ACAD_REACTORS
330
D
102
}
100
AcDbGroup
300

 70
     3
 71
     1
  0
GROUP
  5
D3ED
102
{ACAD_REACTORS
330
D
102
}
100
AcDbGroup
300

 70
     3
 71
     1
  0
GROUP
  5
D3EE
102
{ACAD_REACTORS
330
D
102
}
100
AcDbGroup
300

 70
     3
 71
     1
  0
GROUP
  5
D3EF
102
{ACAD_REACTORS
330
D
102
}
100
AcDbGroup
300

 70
     3
 71
     1
  0
GROUP
  5
D430
102
{ACAD_REACTORS
330
D
102
}
100
AcDbGroup
300

 70
     1
 71
     1
  0
GROUP
  5
D3F0
102
{ACAD_REACTORS
330
D
102
}
100
AcDbGroup
300

 70
     3
 71
     1
  0
GROUP
  5
D3F1
102
{ACAD_REACTORS
330
D
102
}
100
AcDbGroup
300

 70
     3
 71
     1
  0
GROUP
  5
D368
102
{ACAD_REACTORS
330
D
102
}
100
AcDbGroup
300

 70
     1
 71
     1
  0
GROUP
  5
D474
102
{ACAD_REACTORS
330
D
102
}
100
AcDbGroup
300

 70
     3
 71
     1
  0
GROUP
  5
D3F2
102
{ACAD_REACTORS
330
D
102
}
100
AcDbGroup
300

 70
     3
 71
     1
  0
GROUP
  5
D3F3
102
{ACAD_REACTORS
330
D
102
}
100
AcDbGroup
300

 70
     3
 71
     1
  0
GROUP
  5
D3F4
102
{ACAD_REACTORS
330
D
102
}
100
AcDbGroup
300

 70
     1
 71
     1
  0
GROUP
  5
D3F5
102
{ACAD_REACTORS
330
D
102
}
100
AcDbGroup
300

 70
     1
 71
     1
  0
GROUP
  5
D3F6
102
{ACAD_REACTORS
330
D
102
}
100
AcDbGroup
300

 70
     3
 71
     1
  0
GROUP
  5
D3AD
102
{ACAD_REACTORS
330
D
102
}
100
AcDbGroup
300

 70
     3
 71
     1
  0
GROUP
  5
D355
102
{ACAD_REACTORS
330
D
102
}
100
AcDbGroup
300

 70
     1
 71
     1
  0
GROUP
  5
D3F7
102
{ACAD_REACTORS
330
D
102
}
100
AcDbGroup
300

 70
     1
 71
     1
  0
GROUP
  5
D431
102
{ACAD_REACTORS
330
D
102
}
100
AcDbGroup
300

 70
     3
 71
     1
  0
GROUP
  5
D3BD
102
{ACAD_REACTORS
330
D
102
}
100
AcDbGroup
300

 70
     1
 71
     1
  0
GROUP
  5
D4B5
102
{ACAD_REACTORS
330
D
102
}
100
AcDbGroup
300

 70
     1
 71
     1
  0
GROUP
  5
D3F8
102
{ACAD_REACTORS
330
D
102
}
100
AcDbGroup
300

 70
     1
 71
     1
  0
GROUP
  5
D475
102
{ACAD_REACTORS
330
D
102
}
100
AcDbGroup
300

 70
     1
 71
     1
  0
GROUP
  5
D3F9
102
{ACAD_REACTORS
330
D
102
}
100
AcDbGroup
300

 70
     1
 71
     1
  0
GROUP
  5
D3FA
102
{ACAD_REACTORS
330
D
102
}
100
AcDbGroup
300

 70
     1
 71
     1
  0
GROUP
  5
D3FB
102
{ACAD_REACTORS
330
D
102
}
100
AcDbGroup
300

 70
     1
 71
     1
  0
GROUP
  5
D3FC
102
{ACAD_REACTORS
330
D
102
}
100
AcDbGroup
300

 70
     1
 71
     1
  0
GROUP
  5
D3FD
102
{ACAD_REACTORS
330
D
102
}
100
AcDbGroup
300

 70
     1
 71
     1
  0
GROUP
  5
D3FE
102
{ACAD_REACTORS
330
D
102
}
100
AcDbGroup
300

 70
     1
 71
     1
  0
GROUP
  5
D3FF
102
{ACAD_REACTORS
330
D
102
}
100
AcDbGroup
300

 70
     3
 71
     1
  0
GROUP
  5
D432
102
{ACAD_REACTORS
330
D
102
}
100
AcDbGroup
300

 70
     1
 71
     1
  0
GROUP
  5
D4B6
102
{ACAD_REACTORS
330
D
102
}
100
AcDbGroup
300

 70
     1
 71
     1
  0
GROUP
  5
D476
102
{ACAD_REACTORS
330
D
102
}
100
AcDbGroup
300

 70
     1
 71
     1
  0
GROUP
  5
D35B
102
{ACAD_REACTORS
330
D
102
}
100
AcDbGroup
300

 70
     3
 71
     1
  0
GROUP
  5
D433
102
{ACAD_REACTORS
330
D
102
}
100
AcDbGroup
300

 70
     1
 71
     1
  0
GROUP
  5
D40A
102
{ACAD_REACTORS
330
D
102
}
100
AcDbGroup
300

 70
     1
 71
     1
  0
GROUP
  5
D434
102
{ACAD_REACTORS
330
D
102
}
100
AcDbGroup
300

 70
     1
 71
     1
  0
GROUP
  5
D3B3
102
{ACAD_REACTORS
330
D
102
}
100
AcDbGroup
300

 70
     1
 71
     1
  0
GROUP
  5
D477
102
{ACAD_REACTORS
330
D
102
}
100
AcDbGroup
300

 70
     1
 71
     1
  0
GROUP
  5
D435
102
{ACAD_REACTORS
330
D
102
}
100
AcDbGroup
300

 70
     1
 71
     1
  0
GROUP
  5
D478
102
{ACAD_REACTORS
330
D
102
}
100
AcDbGroup
300

 70
     1
 71
     1
  0
GROUP
  5
D403
102
{ACAD_REACTORS
330
D
102
}
100
AcDbGroup
300

 70
     1
 71
     1
  0
GROUP
  5
D4B7
102
{ACAD_REACTORS
330
D
102
}
100
AcDbGroup
300

 70
     1
 71
     1
  0
GROUP
  5
D436
102
{ACAD_REACTORS
330
D
102
}
100
AcDbGroup
300

 70
     1
 71
     1
  0
GROUP
  5
D437
102
{ACAD_REACTORS
330
D
102
}
100
AcDbGroup
300

 70
     1
 71
     1
  0
GROUP
  5
D451
102
{ACAD_REACTORS
330
D
102
}
100
AcDbGroup
300

 70
     1
 71
     1
  0
GROUP
  5
D362
102
{ACAD_REACTORS
330
D
102
}
100
AcDbGroup
300

 70
     1
 71
     1
  0
GROUP
  5
D438
102
{ACAD_REACTORS
330
D
102
}
100
AcDbGroup
300

 70
     1
 71
     1
  0
GROUP
  5
D439
102
{ACAD_REACTORS
330
D
102
}
100
AcDbGroup
300

 70
     3
 71
     1
  0
GROUP
  5
D43A
102
{ACAD_REACTORS
330
D
102
}
100
AcDbGroup
300

 70
     1
 71
     1
  0
GROUP
  5
D43B
102
{ACAD_REACTORS
330
D
102
}
100
AcDbGroup
300

 70
     1
 71
     1
  0
GROUP
  5
D479
102
{ACAD_REACTORS
330
D
102
}
100
AcDbGroup
300

 70
     1
 71
     1
  0
GROUP
  5
D43C
102
{ACAD_REACTORS
330
D
102
}
100
AcDbGroup
300

 70
     1
 71
     1
  0
GROUP
  5
D410
102
{ACAD_REACTORS
330
D
102
}
100
AcDbGroup
300

 70
     1
 71
     1
  0
GROUP
  5
D35C
102
{ACAD_REACTORS
330
D
102
}
100
AcDbGroup
300

 70
     1
 71
     1
  0
GROUP
  5
D43D
102
{ACAD_REACTORS
330
D
102
}
100
AcDbGroup
300

 70
     3
 71
     1
  0
GROUP
  5
D3B4
102
{ACAD_REACTORS
330
D
102
}
100
AcDbGroup
300

 70
     3
 71
     1
  0
GROUP
  5
D404
102
{ACAD_REACTORS
330
D
102
}
100
AcDbGroup
300

 70
     1
 71
     1
  0
GROUP
  5
D43E
102
{ACAD_REACTORS
330
D
102
}
100
AcDbGroup
300

 70
     1
 71
     1
  0
GROUP
  5
D43F
102
{ACAD_REACTORS
330
D
102
}
100
AcDbGroup
300

 70
     1
 71
     1
  0
GROUP
  5
D440
102
{ACAD_REACTORS
330
D
102
}
100
AcDbGroup
300

 70
     1
 71
     1
  0
GROUP
  5
D441
102
{ACAD_REACTORS
330
D
102
}
100
AcDbGroup
300

 70
     1
 71
     1
  0
GROUP
  5
D442
102
{ACAD_REACTORS
330
D
102
}
100
AcDbGroup
300

 70
     1
 71
     1
  0
GROUP
  5
D47A
102
{ACAD_REACTORS
330
D
102
}
100
AcDbGroup
300

 70
     1
 71
     1
  0
GROUP
  5
D4B8
102
{ACAD_REACTORS
330
D
102
}
100
AcDbGroup
300

 70
     1
 71
     1
  0
GROUP
  5
D443
102
{ACAD_REACTORS
330
D
102
}
100
AcDbGroup
300

 70
     1
 71
     1
  0
GROUP
  5
D444
102
{ACAD_REACTORS
330
D
102
}
100
AcDbGroup
300

 70
     3
 71
     1
  0
GROUP
  5
D445
102
{ACAD_REACTORS
330
D
102
}
100
AcDbGroup
300

 70
     1
 71
     1
  0
GROUP
  5
D446
102
{ACAD_REACTORS
330
D
102
}
100
AcDbGroup
300

 70
     3
 71
     1
  0
GROUP
  5
D35D
102
{ACAD_REACTORS
330
D
102
}
100
AcDbGroup
300

 70
     1
 71
     1
  0
GROUP
  5
D405
102
{ACAD_REACTORS
330
D
102
}
100
AcDbGroup
300

 70
     1
 71
     1
  0
GROUP
  5
D3B5
102
{ACAD_REACTORS
330
D
102
}
100
AcDbGroup
300

 70
     3
 71
     1
  0
GROUP
  5
D447
102
{ACAD_REACTORS
330
D
102
}
100
AcDbGroup
300

 70
     3
 71
     1
  0
GROUP
  5
D448
102
{ACAD_REACTORS
330
D
102
}
100
AcDbGroup
300

 70
     3
 71
     1
  0
GROUP
  5
D449
102
{ACAD_REACTORS
330
D
102
}
100
AcDbGroup
300

 70
     3
 71
     1
  0
GROUP
  5
D4B9
102
{ACAD_REACTORS
330
D
102
}
100
AcDbGroup
300

 70
     3
 71
     1
  0
GROUP
  5
D47B
102
{ACAD_REACTORS
330
D
102
}
100
AcDbGroup
300

 70
     1
 71
     1
  0
GROUP
  5
D44A
102
{ACAD_REACTORS
330
D
102
}
100
AcDbGroup
300

 70
     3
 71
     1
  0
GROUP
  5
D44B
102
{ACAD_REACTORS
330
D
102
}
100
AcDbGroup
300

 70
     3
 71
     1
  0
GROUP
  5
D44C
102
{ACAD_REACTORS
330
D
102
}
100
AcDbGroup
300

 70
     1
 71
     1
  0
GROUP
  5
D44D
102
{ACAD_REACTORS
330
D
102
}
100
AcDbGroup
300

 70
     3
 71
     1
  0
GROUP
  5
D44E
102
{ACAD_REACTORS
330
D
102
}
100
AcDbGroup
300

 70
     3
 71
     1
  0
GROUP
  5
D44F
102
{ACAD_REACTORS
330
D
102
}
100
AcDbGroup
300

 70
     3
 71
     1
  0
GROUP
  5
D47C
102
{ACAD_REACTORS
330
D
102
}
100
AcDbGroup
300

 70
     1
 71
     1
  0
GROUP
  5
D34F
102
{ACAD_REACTORS
330
D
102
}
100
AcDbGroup
300

 70
     1
 71
     1
  0
GROUP
  5
D47D
102
{ACAD_REACTORS
330
D
102
}
100
AcDbGroup
300

 70
     1
 71
     1
  0
GROUP
  5
D4BA
102
{ACAD_REACTORS
330
D
102
}
100
AcDbGroup
300

 70
     1
 71
     1
  0
GROUP
  5
D47E
102
{ACAD_REACTORS
330
D
102
}
100
AcDbGroup
300

 70
     1
 71
     1
  0
GROUP
  5
D345
102
{ACAD_REACTORS
330
D
102
}
100
AcDbGroup
300

 70
     3
 71
     1
  0
GROUP
  5
D47F
102
{ACAD_REACTORS
330
D
102
}
100
AcDbGroup
300

 70
     1
 71
     1
  0
GROUP
  5
D452
102
{ACAD_REACTORS
330
D
102
}
100
AcDbGroup
300

 70
     1
 71
     1
  0
GROUP
  5
D480
102
{ACAD_REACTORS
330
D
102
}
100
AcDbGroup
300

 70
     3
 71
     1
  0
GROUP
  5
D481
102
{ACAD_REACTORS
330
D
102
}
100
AcDbGroup
300

 70
     1
 71
     1
  0
GROUP
  5
D482
102
{ACAD_REACTORS
330
D
102
}
100
AcDbGroup
300

 70
     3
 71
     1
  0
GROUP
  5
D363
102
{ACAD_REACTORS
330
D
102
}
100
AcDbGroup
300

 70
     1
 71
     1
  0
GROUP
  5
D483
102
{ACAD_REACTORS
330
D
102
}
100
AcDbGroup
300

 70
     3
 71
     1
  0
GROUP
  5
D484
102
{ACAD_REACTORS
330
D
102
}
100
AcDbGroup
300

 70
     3
 71
     1
  0
GROUP
  5
D459
102
{ACAD_REACTORS
330
D
102
}
100
AcDbGroup
300

 70
     1
 71
     1
  0
GROUP
  5
D485
102
{ACAD_REACTORS
330
D
102
}
100
AcDbGroup
300

 70
     3
 71
     1
  0
GROUP
  5
D3BB
102
{ACAD_REACTORS
330
D
102
}
100
AcDbGroup
300

 70
     3
 71
     1
  0
GROUP
  5
D486
102
{ACAD_REACTORS
330
D
102
}
100
AcDbGroup
300

 70
     1
 71
     1
  0
GROUP
  5
D357
102
{ACAD_REACTORS
330
D
102
}
100
AcDbGroup
300

 70
     1
 71
     1
  0
GROUP
  5
D453
102
{ACAD_REACTORS
330
D
102
}
100
AcDbGroup
300

 70
     3
 71
     1
  0
GROUP
  5
D487
102
{ACAD_REACTORS
330
D
102
}
100
AcDbGroup
300

 70
     3
 71
     1
  0
GROUP
  5
D488
102
{ACAD_REACTORS
330
D
102
}
100
AcDbGroup
300

 70
     3
 71
     1
  0
GROUP
  5
D489
102
{ACAD_REACTORS
330
D
102
}
100
AcDbGroup
300

 70
     3
 71
     1
  0
GROUP
  5
D48A
102
{ACAD_REACTORS
330
D
102
}
100
AcDbGroup
300

 70
     3
 71
     1
  0
GROUP
  5
D48B
102
{ACAD_REACTORS
330
D
102
}
100
AcDbGroup
300

 70
     3
 71
     1
  0
GROUP
  5
D4BB
102
{ACAD_REACTORS
330
D
102
}
100
AcDbGroup
300

 70
     1
 71
     1
  0
GROUP
  5
D48C
102
{ACAD_REACTORS
330
D
102
}
100
AcDbGroup
300

 70
     1
 71
     1
  0
GROUP
  5
D364
102
{ACAD_REACTORS
330
D
102
}
100
AcDbGroup
300

 70
     1
 71
     1
  0
GROUP
  5
D48D
102
{ACAD_REACTORS
330
D
102
}
100
AcDbGroup
300

 70
     3
 71
     1
  0
GROUP
  5
D48E
102
{ACAD_REACTORS
330
D
102
}
100
AcDbGroup
300

 70
     1
 71
     1
  0
GROUP
  5
D3BC
102
{ACAD_REACTORS
330
D
102
}
100
AcDbGroup
300

 70
     3
 71
     1
  0
GROUP
  5
D454
102
{ACAD_REACTORS
330
D
102
}
100
AcDbGroup
300

 70
     3
 71
     1
  0
GROUP
  5
D40B
102
{ACAD_REACTORS
330
D
102
}
100
AcDbGroup
300

 70
     1
 71
     1
  0
GROUP
  5
D48F
102
{ACAD_REACTORS
330
D
102
}
100
AcDbGroup
300

 70
     1
 71
     1
  0
GROUP
  5
D490
102
{ACAD_REACTORS
330
D
102
}
100
AcDbGroup
300

 70
     1
 71
     1
  0
GROUP
  5
D491
102
{ACAD_REACTORS
330
D
102
}
100
AcDbGroup
300

 70
     1
 71
     1
  0
GROUP
  5
D4BC
102
{ACAD_REACTORS
330
D
102
}
100
AcDbGroup
300

 70
     1
 71
     1
  0
GROUP
  5
D492
102
{ACAD_REACTORS
330
D
102
}
100
AcDbGroup
300

 70
     1
 71
     1
  0
GROUP
  5
D493
102
{ACAD_REACTORS
330
D
102
}
100
AcDbGroup
300

 70
     1
 71
     1
  0
GROUP
  5
D494
102
{ACAD_REACTORS
330
D
102
}
100
AcDbGroup
300

 70
     1
 71
     1
  0
GROUP
  5
D495
102
{ACAD_REACTORS
330
D
102
}
100
AcDbGroup
300

 70
     1
 71
     1
  0
GROUP
  5
D496
102
{ACAD_REACTORS
330
D
102
}
100
AcDbGroup
300

 70
     1
 71
     1
  0
GROUP
  5
D365
102
{ACAD_REACTORS
330
D
102
}
100
AcDbGroup
300

 70
     1
 71
     1
  0
GROUP
  5
D498
102
{ACAD_REACTORS
330
D
102
}
100
AcDbGroup
300

 70
     3
 71
     1
  0
GROUP
  5
D3C1
102
{ACAD_REACTORS
330
D
102
}
100
AcDbGroup
300

 70
     3
 71
     1
  0
GROUP
  5
D4BD
102
{ACAD_REACTORS
330
D
102
}
100
AcDbGroup
300

 70
     1
 71
     1
  0
GROUP
  5
D4BE
102
{ACAD_REACTORS
330
D
102
}
100
AcDbGroup
300

 70
     1
 71
     1
  0
GROUP
  5
D369
102
{ACAD_REACTORS
330
D
102
}
100
AcDbGroup
300

 70
     1
 71
     1
  0
GROUP
  5
D4BF
102
{ACAD_REACTORS
330
D
102
}
100
AcDbGroup
300

 70
     1
 71
     1
  0
GROUP
  5
D3B0
102
{ACAD_REACTORS
330
D
102
}
100
AcDbGroup
300

 70
     3
 71
     1
  0
GROUP
  5
D4C0
102
{ACAD_REACTORS
330
D
102
}
100
AcDbGroup
300

 70
     1
 71
     1
  0
GROUP
  5
D4C1
102
{ACAD_REACTORS
330
D
102
}
100
AcDbGroup
300

 70
     1
 71
     1
  0
GROUP
  5
D34D
102
{ACAD_REACTORS
330
D
102
}
100
AcDbGroup
300

 70
     1
 71
     1
  0
GROUP
  5
D4C2
102
{ACAD_REACTORS
330
D
102
}
100
AcDbGroup
300

 70
     1
 71
     1
  0
GROUP
  5
D499
102
{ACAD_REACTORS
330
D
102
}
100
AcDbGroup
300

 70
     1
 71
     1
  0
GROUP
  5
D4C3
102
{ACAD_REACTORS
330
D
102
}
100
AcDbGroup
300

 70
     1
 71
     1
  0
GROUP
  5
D4C4
102
{ACAD_REACTORS
330
D
102
}
100
AcDbGroup
300

 70
     3
 71
     1
  0
GROUP
  5
D4C5
102
{ACAD_REACTORS
330
D
102
}
100
AcDbGroup
300

 70
     1
 71
     1
  0
GROUP
  5
D3C2
102
{ACAD_REACTORS
330
D
102
}
100
AcDbGroup
300

 70
     3
 71
     1
  0
GROUP
  5
D4C6
102
{ACAD_REACTORS
330
D
102
}
100
AcDbGroup
300

 70
     1
 71
     1
  0
GROUP
  5
D4C7
102
{ACAD_REACTORS
330
D
102
}
100
AcDbGroup
300

 70
     1
 71
     1
  0
GROUP
  5
D4C8
102
{ACAD_REACTORS
330
D
102
}
100
AcDbGroup
300

 70
     1
 71
     1
  0
GROUP
  5
D411
102
{ACAD_REACTORS
330
D
102
}
100
AcDbGroup
300

 70
     1
 71
     1
  0
GROUP
  5
D36A
102
{ACAD_REACTORS
330
D
102
}
100
AcDbGroup
300

 70
     1
 71
     1
  0
GROUP
  5
D3B7
102
{ACAD_REACTORS
330
D
102
}
100
AcDbGroup
300

 70
     3
 71
     1
  0
GROUP
  5
D49A
102
{ACAD_REACTORS
330
D
102
}
100
AcDbGroup
300

 70
     1
 71
     1
  0
GROUP
  5
D4C9
102
{ACAD_REACTORS
330
D
102
}
100
AcDbGroup
300

 70
     1
 71
     1
  0
GROUP
  5
D4CA
102
{ACAD_REACTORS
330
D
102
}
100
AcDbGroup
300

 70
     1
 71
     1
  0
GROUP
  5
D4CB
102
{ACAD_REACTORS
330
D
102
}
100
AcDbGroup
300

 70
     1
 71
     1
  0
GROUP
  5
D4CC
102
{ACAD_REACTORS
330
D
102
}
100
AcDbGroup
300

 70
     1
 71
     1
  0
GROUP
  5
D4CD
102
{ACAD_REACTORS
330
D
102
}
100
AcDbGroup
300

 70
     1
 71
     1
  0
GROUP
  5
D4CE
102
{ACAD_REACTORS
330
D
102
}
100
AcDbGroup
300

 70
     1
 71
     1
  0
GROUP
  5
D3C3
102
{ACAD_REACTORS
330
D
102
}
100
AcDbGroup
300

 70
     3
 71
     1
  0
GROUP
  5
DA68
102
{ACAD_REACTORS
330
D
102
}
100
AcDbGroup
300

 70
     1
 71
     1
  0
GROUP
  5
D412
102
{ACAD_REACTORS
330
D
102
}
100
AcDbGroup
300

 70
     1
 71
     1
  0
GROUP
  5
DA6A
102
{ACAD_REACTORS
330
D
102
}
100
AcDbGroup
300

 70
     1
 71
     1
  0
GROUP
  5
D49B
102
{ACAD_REACTORS
330
D
102
}
100
AcDbGroup
300

 70
     1
 71
     1
  0
GROUP
  5
D45A
102
{ACAD_REACTORS
330
D
102
}
100
AcDbGroup
300

 70
     1
 71
     1
  0
GROUP
  5
D347
102
{ACAD_REACTORS
330
D
102
}
100
AcDbGroup
300

 70
     1
 71
     1
  0
GROUP
  5
D36B
102
{ACAD_REACTORS
330
D
102
}
100
AcDbGroup
300

 70
     1
 71
     1
  0
GROUP
  5
DA6B
102
{ACAD_REACTORS
330
D
102
}
100
AcDbGroup
300

 70
     1
 71
     1
  0
GROUP
  5
DA6C
102
{ACAD_REACTORS
330
D
102
}
100
AcDbGroup
300

 70
     1
 71
     1
  0
GROUP
  5
DA6D
102
{ACAD_REACTORS
330
D
102
}
100
AcDbGroup
300

 70
     1
 71
     1
  0
GROUP
  5
DA6E
102
{ACAD_REACTORS
330
D
102
}
100
AcDbGroup
300

 70
     1
 71
     1
  0
GROUP
  5
DA6F
102
{ACAD_REACTORS
330
D
102
}
100
AcDbGroup
300

 70
     1
 71
     1
  0
GROUP
  5
D3C4
102
{ACAD_REACTORS
330
D
102
}
100
AcDbGroup
300

 70
     3
 71
     1
  0
GROUP
  5
DA70
102
{ACAD_REACTORS
330
D
102
}
100
AcDbGroup
300

 70
     1
 71
     1
  0
MLINESTYLE
  5
1C
102
{ACAD_REACTORS
330
1B
102
}
100
AcDbMlineStyle
  2
STANDARD
 70
     0
  3

 62
   256
 51
90.0
 52
90.0
 71
     2
 49
0.5
 62
   256
  6
BYLAYER
 49
-0.5
 62
   256
  6
BYLAYER
  0
ENDSEC
  0
EOF
